Song name
# A B C D E F G H I J K L M N O P Q R S T U V W X Y Z

Copeland - All That Jazz tab

e --------------------0-0-9-0-|
B ---9----9--7---7------------|
G ---9----9--7-----7----------|
A ---9----9--7--7-------------|
D ----------------------------|
E -0----0---------------------|


e --------------------0-------------0----------0---0-5-7-0----------|
B ---9----9--7---7------7-----5-5-----5----5------------------------|
G ---9----9--7-----7----------7-7-------7--7------------------------|
A ---9----9--7--7-------------7-7----------7------------------------|
D ------------------------------------------------------------------|
E -0----0---------------------7-7----------7-----0------------------|
Tap to rate this tab
# A B C D E F G H I J K L M N O P Q R S T U V W X Y Z