Song name
# A B C D E F G H I J K L M N O P Q R S T U V W X Y Z

Copeland - Im Safer On An Airplane tab

==============================================================================
                         I'm Safer On An Airplane
                                   by
                                Copeland
==============================================================================


INTRO/VERSE

e|-------------------------------------------------------------------------|
B|-------------------------------------------------------------------------|
G|----------8---8-----------8---6--5-----------Repeat-This-----------------|
D|---6------10--10---6------10--8--6--------------Twice--------------------|
A|---8--8------------8--8--------------------------------------------------|
E|-------------------------------------------------------------------------|

e|-------------------------------------------------------------------------|
B|-------------------------------------------------------------------------|
G|----------8---8-----------6--5--3------------8---8-----------8---6--5----|
D|---6------10--10---6------8--6--5-----6------10--10---6------10--8--6----|
A|---8--8------------8--8---------------8--8------------8--8---------------|
E|-------------------------------------------------------------------------|


PRE-CHORUS

e|-------------------------------------------------------------------------|
B|-------------------------------------------------------------------------|
G|---5-5---5----5-5---5----5-5---5---5-5~~~--------------------------------|
D|---6-6---6----6-6---6----6-6---6---6-6~~~-----Let-Ring-------------------|
A|---------4----------4----------4-----------------------------------------|
E|---6-6--------6-6--------6-6-------6-6~~~--------------------------------|


CHORUS

e|-------------------------------------------------------------------------|
B|-------------------------------------------------------------------------|
G|------5-5------5-5------5-5------5-5---------Repeat-This-----------------|
D|------6-6------6-6------6-6------6-6------------Twice--------------------|
A|---8--------6--------4---------------------------------------------------|
E|------------------------------6------------------------------------------|

e|-------------------------------------------------------------------------|
B|-------------------------------------------------------------------------|
G|------5-5------5-5------5-5------5-5-------------------------------------|
D|------6-6------6-6------6-6------6-6-------------------------------------|
A|----------------------4--------------------------------------------------|
E|----4--------6-----------------6-----------------------------------------|


2nd VERSE (guitar part)

e|-------------------------------------------------------------------------|
B|-------------------------------------------------------------------------|
G|----------8----6--5--------------8----6--5-------------8----5--6--8------|
D|----8--6-------------------8--6------------------8--6--------------------|
A|-------------------------------------------------------------------------|
E|-------------------------------------------------------------------------|

e|-------------------------------------------------------------------------|
B|---------8------9~~-----6~~-----6-----8-----8--9-----9-----6~~-----------|
G|------8-----8--8-------6-----6-----6-----8--------8-------6--------------|
D|-------------------------------------------------------------------------|
A|-------------------------------------------------------------------------|
E|-------------------------------------------------------------------------|


BRIDGE

e|-------------------------------------------------------------------------|
B|-------------------------------------------------------------------------|
G|---3-3-3----3-3-3----3-3-3----3-3-3----3-3-3----3-3-3----3-3-3----3-3-3--|
D|---5-5-5----5-5-5----5-5-5----5-5-5----5-5-5----5-5-5----5-5-5----5-5-5--|
A|---6-6-6----4-4-4----3-3-3----4-4-4----6-6-6----4-4-4----3-3-3----4-4-4--|
E|-------------------------------------------------------------------------|


So thats the song... i found that if you want to get a sound like the keyboard than to 
the tone settings on your pick ups or if using an acoustic than to play just in front of 
sound hole on top of the last two frets

all of this is find your own rhythm type of stuff... its not sheet music its tabs right 
the only part that you'll have to really listen for is the 2nd guitar part.

If you want to play this for people... i found that if its solo acoustic than strumming 
the same song... just play the cords


Tabbed by: Christopher Wilcott
Tap to rate this tab
# A B C D E F G H I J K L M N O P Q R S T U V W X Y Z