Song name
# A B C D E F G H I J K L M N O P Q R S T U V W X Y Z

Copeland - Cover What You Can tab

-------------------------------------------------------------------------------
			     Cover What You Can - Copeland
-------------------------------------------------------------------------------
Tabbed by: Josh
Email: Today260@hotmail.com

Tuning: Standard

This song is mainly just two guitar parts

e|---------------------------------------------|
B|---------7-------7---------14----------14----|
G|-------7---7---7---7----11----11----11----11-| X2
D|-----7-------7-------11----------11----------|
A|---------------------------------------------|
E|---------------------------------------------|

                 AND

e|--10-10-9-14--------------------------------------------------------------------------|
B|-------------12-12-10-15--------------------------------------------------------------|
G|-------------------------12-12-11-11-9------------------------------------------------|
D|--------------------------------------------------------------------------------------|
A|--------------------------------------------------------------------------------------|
E|--------------------------------------------------------------------------------------|

Play those parts again and again and thats pretty much it.

| /  slide up
| \  slide down
| h  hammer-on
| p  pull-off
| ~  vibrato
| +  harmonic
| x  Mute note
===============================================================================
Tap to rate this tab
# A B C D E F G H I J K L M N O P Q R S T U V W X Y Z