Song name
# A B C D E F G H I J K L M N O P Q R S T U V W X Y Z

Coppelius - Olimpia tab

-------------------------------------------------------------------------------
			     OLIMPIA - Coppelius
-------------------------------------------------------------------------------
Tabbed by: Szaladin/ Tobi R.
Email: sz4l4d1n@googlemail.com

Tuning: EADGbe

The upright bass plays this as main/intro riff:
G|---------------------------------------------------------------------------|
D|-------2---4---2---------2-----4---2---------5---4---5--------5-0--4--5----|
A|---------------------------2-----------------------------------------------|
E|---0-----------------0------------------3-----------------3----------------|


The lead sets in:
e|----------------------------------------------|
B|--3/1-0-----0-1-0-3-/5--0-------0--1-3-0--/5--|
G|----------------------------------------------| 1x
D|----------------------------------------------|
A|----------------------------------------------|
E|----------------------------------------------|

e|-------------------------------------------------------------------|
B|--0-0-3-0------0-1-0-3-/5----0-1-3-0---0--1-3-0--5-----------------|
G|-------------------------------------------------------------------| 2x
D|-------------------------------------------------------------------|
A|-------------------------------------------------------------------|
E|-------------------------------------------------------------------|



Pre-Chorus:
e|---------------------------------------|
B|---------------------------------------|
G|---------------------------------------|
D|---------------------------------------|
A|---2-------2-0-----2-------2-1-0-------|
E|-------2----------------2--------------|




Chorus:
e|------------------------------------------------------------------|
B|------------------------------------------------------------------|
G|------------------------------------------------------------------|
D|---2--2-2--2-------2--5-5--7-7----2-2------2---5-5-5-5-/7--7-7-7--|
A|---2--2-2--2-------2--5-5--7-7----2-2------2---5-5-5-5-/7--7-7-7--|
E|---0--0-0--0-------0--3-3--5-5----0-0------0---3-3-3-3-/5--5-5-5--|

e|------------------------------------------------------------------|
B|------------------------------------------------------------------|
G|------------------------------------------------------------------|
D|----9-9-9--10-10---9--------2-------------------------------------|
A|----9-9-9--10-10---9--------2------2--5-5-7-9-10-9-7-5------------|
E|----7-7-7--8--8----7--------0------0--3-3-5-7-8--7-5-3------------|



| /  slide up
| \  slide down
| h  hammer-on
| p  pull-off
| ~  vibrato
| +  harmonic
| x  Mute note
===============================================================================
Tap to rate this tab
# A B C D E F G H I J K L M N O P Q R S T U V W X Y Z