Coppelius - Das Amulett tab

Intro:
e|--------------------------------------------------------------------------|
b|--------------------------------------------------------------------------|
g|-------------------------------------5--5-5-7-5---5-----------------------|
D|---------5--5-5-7-5---5-7--7-8-7---8------------8---7--7-7-8-7h8p7-5---5--|
A|-5-5-5-8------------8------------------------------------------------8----|
E|--------------------------------------------------------------------------|

e|--------------------------------------------------------------------------|
b|--------------------------------------------------------------------------|
g|------------------------5--5-5-7-5----5-----------------------------------|
D|-5-7-5---5-7--7-8-7---8-------------8-----7/8\7---------------------------|
A|-------8------------------------------------------------------------------|
E|--------------------------------------------------------------------------|

Strophe:                       2x
e|----------------------------|
b|----------------------------|
g|----------------------------|
D|-------5~~---3~~--------3~~-|
A|----------------3~~~~5~~----|
E|----3~~---1~~---------------|

Bridge:
e|-----------------|
b|-----------------|
g|-----------------|
D|----5~~------3~~-|
A|----------3~~----|
E|-------3~~-------|

Strophe:                       2x
e|----------------------------|
b|----------------------------|
g|----------------------------|
D|-------5~~---3~~--------3~~-|
A|----------------3~~~~5~~----|
E|----3~~---1~~---------------|

Bridge:
e|-----------------|
b|-----------------|
g|-----------------|
D|----5~~------3~~-|
A|----------3~~----|
E|-------3~~-------|

Strophe:                       3x
e|----------------------------|
b|----------------------------|
g|----------------------------|
D|-------5~~---3~~--------3~~-|
A|----------------3~~~~5~~----|
E|----3~~---1~~---------------|

Outro:
e|--------------------------------------------------------------------------|
b|--------------------------------------------------------------------------|
g|-------------------------------------5--5-5-7-5---5-----------------------|
D|---------5--5-5-7-5---5-7--7-8-7---8------------8---7--7-7-8-7h8p7-5---5--|
A|-5-5-5-8------------8------------------------------------------------8----|
E|--------------------------------------------------------------------------|

e|--------------------------------------------------------------------------|
b|--------------------------------------------------------------------------|
g|------------------------5--5-5-7-5----5-----------------------------------|
D|-5-7-5---5-7--7-8-7---8-------------8-----7/8\7---------------------------|
A|-------8------------------------------------------------------------------|
E|--------------------------------------------------------------------------|

maybe the sliding parts are not sliding parts, but only faster played. Well it's a 
cello, so for me it is the best way to play it on guitar!

/ - slide up
\ - slide down
h - hammer-on
p - pull-off
~ - let ring
Tap to rate this tab
 
# A B C D E F G H I J K L M N O P Q R S T U V W X Y Z