Guitaretab - guitar tabs
Song name
# A B C D E F G H I J K L M N O P Q R S T U V W X Y Z

Copper - Broken Sky tab

Band:Copper
Song:Broken Sky


Tuning: C G C F A D


Part:I
d|---------------------------------------------------------------------------|
A|---------------------------------------------------------------------------|
F|---------------------------------------------------------------------------|
C|--2/0-2----5-5---0-0---7-7------2/0-2----5-5---0-0---7-0-------------------|
G|--2/0-2----5-5---0-0---7-7------2/0-2----5-5---0-0---7-0-------------------|
C|--2/0-2----5-5---0-0---7-7------2/0-2----5-5---0-0---7-0-------------------|

Part:II
d|---------------------------------------------------------------------------|
A|---------------------------------------------------------------------------|
F|-----0-------0-------0-------0---------------------------------------------|
C|---4--4----4--4----4--4----4--4--------------------------------------------|
G|-------2-------2-------0-------0-------------------------------------------|
C|--2-2-----2-2-----0-0-----0-0----------------------------------------------|

Part:III
d|---------------------------------------------------------------------------|
A|---------------------------------------------------------------------------|
F|---4--------4--------------------------------------------------------------|
C|---4--5--0--4--5-------0---------------------------------------------------|
G|---2--5--0--2--5-------0--8X-----------------------------------------------|
D|------5--0-----5-------0---------------------------------------------------|
[ Tab from: http://www.guitaretab.com/c/copper/115247.html ]
Part:IV
d|---------------------------------------------------------------------------|
A|---------------------------------------------------------------------------|
F|----------------------------------------------4----------------------------|
C|---2-2-2-2--5-5-5-5--0-0-0-0--7-7-7-7---------4--0--5--0-------------------|
G|---2-2-2-2--5-5-5-5--0-0-0-0--7-7-7-7--3x-----2--0--5--0-------------------|
C|---2-2-2-2--5-5-5-5--0-0-0-0--7-7-7-7------------0--5--0-------------------|


Part:I
Ohh....


Part:II
I've got a broken sky
Miles above
I talk to every night
It used to be the one to say it's all right
Now it's the setting sun


Part:III
Every part of me is you
Can we make this black sky blue?


Part:IV
Well maybe I wouldn't be so broken-hearted
If you were still here with me
Love is just a disease
I'm taught about it
It only makes me cry

Ohhh...
d|-------------------------------------------------------------|
A|-------------------------------------------------------------|
F|-------------------------------------------------------------|
C|--2/0-2---5-5---2/0-2---7-7----2/0-2---5-5------0-0--7--0----|
G|--2/0-2---5-5---2/0-2---7-7----2/0-2---5-5------0-0--7--0----|
C|--2/0-2---5-5---2/0-2---7-7----2/0-2---5-5------0-0--7--0----|


Part:II
I walk these empty rooms
Half alive
And not the way I knew
Sometimes the silence seems so loud
I hear it in my dreams


Part:III
Every part of me is you
Can we fill these empty rooms?


Part:IV
Maybe I wouldn't be so broken-hearted
If you were still here with me
Love is just a disease
I'm taught about it
It only makes me cry, ohhh...


Part:III
Every part of me is you
Can we make this black sky blue?


Part:IV
Well maybe I wouldn't be so broken-hearted
If you were still here with me
Love is just a disease
I'm taught about it
It only makes me cry... oooh...
Related for Broken Sky tab