Guitaretab - guitar tabs
Song name
# A B C D E F G H I J K L M N O P Q R S T U V W X Y Z

Coq Roq - Bob Your Head tab

Drop D tuning

This new band is sponsored by the Burger King Corporation, in turn they appear on BK
commercials to perform rock songs advertising their products.
A song that rocks this hard can be this easy..... believe that.
This is the rhythm part, you can figure out the lead part, it's pretty easy if you
listen to it. 


Intro
e|------------------------------------------------------------------------|
B|------------------------------------------------------------------------|
G|------------------------------------------------------------------------|
D|------------------------------------------------------------------------|
A|------------------------------------------------------------------------|
D|-15-15-15-15--9-9-9-9--8-8-8-8--6-6-6-6--15-15-15-15--9-9-9-9--8-8-8-8--|

e|------------------------------------------------------------------------|
B|------------------------------------------------------------------------|
G|------------------------------------------------------------------------|
D|-11--15-15-15-15-9-9-9-9-8-8-8-8-6-6-6-6--15-15-15-15-9-9-9-9-8-8-8-8---|
A|-11--15-15-15-15-9-9-9-9-8-8-8-8-6-6-6-6--15-15-15-15-9-9-9-9-8-8-8-8---|
D|-11--15-15-15-15-9-9-9-9-8-8-8-8-6-6-6-6--15-15-15-15-9-9-9-9-8-8-8-8---|

e|------------------------------------------------------------------------|
B|------------------------------------------------------------------------|
G|------------------------------------------------------------------------|
D|-11-11-11-11------------------------------------------------------------|
A|-11-11-11-11------------------------------------------------------------|
D|-11-11-11-11------------------------------------------------------------|

Verse	    2x
e|-----------------------------------|
B|-----------------------------------|
G|-----------------------------------|
D|-15-------13-----------------------|
A|-15-x16---13-x16-------------------|
D|-15-------13-----------------------|
[ Tab from: http://www.guitaretab.com/c/coq-roq/62409.html ]
e|------------------------------------------------------------------------|
B|------------------------------------------------------------------------|
G|------------------------------------------------------------------------|
D|-15-15-15-15--9-9-9-9--8-8-8-8--6-6-6-6--15-15-15-15--9-9-9-9--8-8-8-8--|
A|-15-15-15-15--9-9-9-9--8-8-8-8--6-6-6-6--15-15-15-15--9-9-9-9--8-8-8-8--|
D|-15-15-15-15--9-9-9-9--8-8-8-8--6-6-6-6--15-15-15-15--9-9-9-9--8-8-8-8--|

e|------------------------------------------------------------------------|
B|------------------------------------------------------------------------|
G|------------------------------------------------------------------------|
D|-11-11-11-11------------------------------------------------------------|
A|-11-11-11-11------------------------------------------------------------|
D|-11-11-11-11------------------------------------------------------------|

Chorus	    4x
e|---------------------------------|
B|---------------------------------|
G|---------------------------------|
D|-15--3-6-8-10-13-------------|
A|-15--3-6-8-10-13-------------|
D|-15--3-6-8-10-13-------------|

Post-Chorus 1
e|------------------------------------------------------------------------|
B|------------------------------------------------------------------------|
G|------------------------------------------------------------------------|
D|------------------------------------------------------------------------|
A|------------------------------------------------------------------------|
D|-15-15-15-15--9-9-9-9--8-8-8-8--6-6-6-6---------------------------------|


e|------------------------------------------------------------------------|
B|------------------------------------------------------------------------|
G|------------------------------------------------------------------------|
D|-15-15-15-15--9-9-9-9--8-8-8-8--6-6-6-6---------------------------------|
A|-15-15-15-15--9-9-9-9--8-8-8-8--6-6-6-6---------------------------------|
D|-15-15-15-15--9-9-9-9--8-8-8-8--6-6-6-6---------------------------------|

Verse       2x
Chorus      4x

Post-Chorus 2
e|------------------------------------------|
B|------------------------------------------|
G|------------------------------------------|
D|------------------------------------------|	repeat
A|------------------------------------------|
D|-15-15-15-15--9-9-9-9--8-8-8-8--6-6-6-6---|

Chorus	    8x

End on
e|-----|
B|-----|
G|-----|
D|-15--|
A|-15--|
D|-15--|

Don't forget to eat chicken fries after this. It's soo good~