Guitaretab - guitar tabs
Song name
# A B C D E F G H I J K L M N O P Q R S T U V W X Y Z

Coral - The Operator tab

-------------------------------------------------------------------------------
	                 The Operator - The Coral
-------------------------------------------------------------------------------
Tabbed by: ben pattyson
Email: benpattyson@yahoo.com

This song has some great keyboard in it so Iíve attempted to tab 
it as well as the guitar. Ace tune! Cheers.

Intro (keyboard bit)

  Em       Ebm    Dm      A      Abm     C#m    A              G#
e|-7-----------6--5-----------5--4-----------4------5-------5-------4-------4-|
B|---8---8---7------6---6---5------4---4---5------5---5---5---5---4---4---4---|
G|-----9---8----------7---6----------4---6------6-------6-------5-------5-----|
D|----------------------------------------------------------------------------|
A|----------------------------------------------------------------------------|
E|----------------------------------------------------------------------------|

Next bit e.g (0:27)
[ Tab from: http://www.guitaretab.com/c/coral/112812.html ]
  F#m              G#m             C#m            Ebm    Em
e|-------------------------------------------------------------------------|
B|-------------------------------------------------------8-8-8-8-8-8-8-8---|
G|-3b4r----2b3r----4b5r----4b5r----6b7r----6b7r----8b9r--------------------|
D|-------------------------------------------------------------------------|
A|-------------------------------------------------------------------------|
E|-------------------------------------------------------------------------|

Bridge 

  Em   Ebm Dm G#m  C#m G#m C#m G#m
e|-7---6---5----------------------|
B|-------------4---5---4---5---4--|
G|--------------------------------| x4
D|--------------------------------|
A|--------------------------------|
E|--------------------------------|

Outro

   A   G#  G  C#m
e|-5---4---3--------4------|
B|---------------5---------|
G|------------6------------| x5
D|-------------------------|
A|-------------------------|
E|-------------------------|

End on G.

Iím open to corrections, Iím not 100% on all chords.

| b  bend
| r  release

Related for The Operator tab