Guitaretab - guitar tabs
Song name
# A B C D E F G H I J K L M N O P Q R S T U V W X Y Z

Coral - Being Somebody Else tab

-------------------------------------------------------------------------------
	      Being Somebody Else  The Coral
-------------------------------------------------------------------------------
Tabbed by: Ben Pattyson	
Email: benpattyson@yahoo.com

Great song! Its not perfect, open to corrections. Cheers.

Note: Capo 2nd fret

Chords Used:

   D   Dsus2 A    G   Em
e|-2----0----5----3----0----|
B|-3----3----5----3----0----|
G|-2----2----6----4----0----|
D|-0----0----7----5----2----|
A|---------------------2----|
E|---------------------0----|

Rhythm Guitar (Acoustic)

Intro

e|-2--2--2--0--2--5-5-5--3-3-3-----|
B|-3--3--3--3--3--5-5-5--3-3-3-----|
G|-2--2--2--2--2--6-6-6--4-4-4-----| repeat
D|-0--0--0--0--0--7-7-7--5-5-5-----|
A|---------------------------------|
E|---------------------------------|

(0:28)

e|-0-0-0-0-0-0-0-0-0-0-0-0-0-0-0---|
B|-0-0-0-0-0-0-0-0-0-0-0-0-0-0-0---|
G|-0-0-0-0-0-0-0-0-0-0-0-0-0-0-0---| 
D|-2-2-2-2-2-2-2-2-2-2-2-2-2-2-2---|
A|-2-2-2-2-2-2-2-2-2-2-2-2-2-2-2---|
E|-0-0-0-0-0-0-0-0-0-0-0-0-0-0-0---|

(0:35)

e|-2--2--2--0--2--5-5-5--3-3-3-----|
B|-3--3--3--3--3--5-5-5--3-3-3-----|
G|-2--2--2--2--2--6-6-6--4-4-4-----| repeat
D|-0--0--0--0--0--7-7-7--5-5-5-----|
A|---------------------------------|
E|---------------------------------|

(0:58)

e|-0-0-0-0-0-0-0-0-0-0-0-0-0-0-0---|
B|-0-0-0-0-0-0-0-0-0-0-0-0-0-0-0---|
G|-0-0-0-0-0-0-0-0-0-0-0-0-0-0-0---|
D|-2-2-2-2-2-2-2-2-2-2-2-2-2-2-2---|
A|-2-2-2-2-2-2-2-2-2-2-2-2-2-2-2---|
E|-0-0-0-0-0-0-0-0-0-0-0-0-0-0-0---|

(1:04)

e|-2--2--2--0--2--5-5-5--3-3-3-----|
B|-3--3--3--3--3--5-5-5--3-3-3-----|
G|-2--2--2--2--2--6-6-6--4-4-4-----| repeat
D|-0--0--0--0--0--7-7-7--5-5-5-----|
A|---------------------------------|
E|---------------------------------|

(1:11)

e|-2--2--2--0--2--2--2--2--0--2----|
B|-3--3--3--3--3--3--3--3--3--3----|
G|-2--2--2--2--2--2--2--2--2--2----|
D|-0--0--0--0--0--0--0--0--0--0----|
A|---------------------------------|
E|---------------------------------|

(strings bit)
e|-0-0-0-0-0-0-0-0-2-2-2-2-2-2-2-2-0-0-0-0-0-0-0-0---|
B|-0-0-0-0-0-0-0-0-3-3-3-3-3-3-3-3-0-0-0-0-0-0-0-0---|
G|-0-0-0-0-0-0-0-0-2-2-2-2-2-2-2-2-0-0-0-0-0-0-0-0---|
D|-2-2-2-2-2-2-2-2-0-0-0-0-0-0-0-0-2-2-2-2-2-2-2-2---|
A|-2-2-2-2-2-2-2-2-----------------2-2-2-2-2-2-2-2---|
E|-0-0-0-0-0-0-0-0-----------------0-0-0-0-0-0-0-0---|

(1:25)

e|-2--2--2--0--2--2--2--2--0--2---2-|
B|-3--3--3--3--3--3--3--3--3--3---3-|
G|-2--2--2--2--2--2--2--2--2--2---2-|
D|-0--0--0--0--0--0--0--0--0--0---0-|
A|----------------------------------|
E|----------------------------------|

(1:29)
[ Tab from: http://www.guitaretab.com/c/coral/113897.html ]
e|-5-5-5--3-3-3--2--------5-5-5--3-3-3-----|
B|-5-5-5--3-3-3--3--------5-5-5--3-3-3-----|
G|-6-6-6--4-4-4--2--------6-6-6--4-4-4-----|
D|-7-7-7--5-5-5--0--------7-7-7--5-5-5-----|
A|-----------------------------------------|
E|-----------------------------------------|

e|-2--2--2--0--2--5-5-5--3-3-3-----|
B|-3--3--3--3--3--5-5-5--3-3-3-----|
G|-2--2--2--2--2--6-6-6--4-4-4-----| repeat
D|-0--0--0--0--0--7-7-7--5-5-5-----|
A|---------------------------------|
E|---------------------------------|

e|-0-0-0-0-0-0-0-0-0-0-0-0-0-0-0---|
B|-0-0-0-0-0-0-0-0-0-0-0-0-0-0-0---|
G|-0-0-0-0-0-0-0-0-0-0-0-0-0-0-0---|
D|-2-2-2-2-2-2-2-2-2-2-2-2-2-2-2---|
A|-2-2-2-2-2-2-2-2-2-2-2-2-2-2-2---|
E|-0-0-0-0-0-0-0-0-0-0-0-0-0-0-0---|

e|-2--2--2--0--2--5-5-5--3-3-3-----|
B|-3--3--3--3--3--5-5-5--3-3-3-----|
G|-2--2--2--2--2--6-6-6--4-4-4-----| repeat
D|-0--0--0--0--0--7-7-7--5-5-5-----|
A|---------------------------------|
E|---------------------------------|

(2:07)

e|-2--2--2--0--2--2--2--2--0--2----|
B|-3--3--3--3--3--3--3--3--3--3----|
G|-2--2--2--2--2--2--2--2--2--2----|
D|-0--0--0--0--0--0--0--0--0--0----|
A|---------------------------------|
E|---------------------------------|

(strings bit)
e|-0-0-0-0-0-0-0-0-2-2-2-2-2-2-2-2--|
B|-0-0-0-0-0-0-0-0-3-3-3-3-3-3-3-3--|
G|-0-0-0-0-0-0-0-0-2-2-2-2-2-2-2-2--|
D|-2-2-2-2-2-2-2-2-0-0-0-0-0-0-0-0--|
A|-2-2-2-2-2-2-2-2------------------|
E|-0-0-0-0-0-0-0-0------------------|

(2:18)

e|-2--2--2--0--2--5-5-5--3-3-3-----|
B|-3--3--3--3--3--5-5-5--3-3-3-----|
G|-2--2--2--2--2--6-6-6--4-4-4-----| 
D|-0--0--0--0--0--7-7-7--5-5-5-----|
A|---------------------------------|
E|---------------------------------|

e|-0-0-0-0-0-0-0-0--|
B|-0-0-0-0-0-0-0-0--|
G|-0-0-0-0-0-0-0-0--|
D|-2-2-2-2-2-2-2-2--|
A|-2-2-2-2-2-2-2-2--|
E|-0-0-0-0-0-0-0-0--|

e|-2--2--2--0--2--5-5-5--3-3-3-----|
B|-3--3--3--3--3--5-5-5--3-3-3-----|
G|-2--2--2--2--2--6-6-6--4-4-4-----| repeat
D|-0--0--0--0--0--7-7-7--5-5-5-----|
A|---------------------------------|
E|---------------------------------|

End on D.


Lead Guitar fills (Electric)

Note: Without capo.

(0:19)

e|---------------------|
B|-10-9-7--------------|
G|--------9-8-6--------|
D|--------------9-7s6--|
A|---------------------|
E|---------------------|

(0:50)

e|---------------------|
B|-10-9-7--------------|
G|--------9-8-6--------|
D|--------------9-7s6--|
A|---------------------|
E|---------------------|

(1:39)

e|---------------------|
B|-10-9-7--------------|
G|--------9-8-6--------|
D|--------------9-7s6--|
A|---------------------|
E|---------------------|

===============================================================================
Related for Being Somebody Else tab