Song name
# A B C D E F G H I J K L M N O P Q R S T U V W X Y Z

Coral - Skeleton Key tab

The Coral - Skeleton Key

Intro

E/----------------------------------------------------------------------|
B/-5555-6666-7/---------5-6-8-6-5--5-6-8-6-5-5--5-6-8-6-5--5-6-8-6-5-5--|
G/----------------------------------------------------------------------|
D/----------------------------------------------------------------------|
A/----------------------------------------------------------------------|
E/----------------------------------------------------------------------|

E/------------------------------------/
B/-5-6-8-6-5--5-6-8-6-5-5--5-6-8-6-5--/
G/------------------------------------/

D/------------------------------------/
A/------------------------------------/
E/------------------------------------/

Main Riff

E/-------------------------------10-12-----|
B/---------------3-5-----------------------|
G/--5b7b5b7b5-2-------5b7b5b7b5------------| That's just played over and over
D/-----------------------------------------|   again. Sometimes the pattern
A/-----------------------------------------|             alternates.
E/-----------------------------------------|

The chord E is thrashed away at
from "Solid boned skeleton key" until "I am shipwrecked on the rocks"

Sometimes the guitar just slides up the fret board on that part though...

Solo

E/--3-4-5------7p5-------------12-10-8-7-8-7-5---------|
B/-----------------8-7-8-5---------------------7-7h8-5-|
G/-----------------------------------------------------|
D/-----------------------------------------------------|
A/-----------------------------------------------------|
E/-----------------------------------------------------|

Finished. Do a dance.
Tap to rate this tab
# A B C D E F G H I J K L M N O P Q R S T U V W X Y Z