Guitaretab - guitar tabs
Song name
# A B C D E F G H I J K L M N O P Q R S T U V W X Y Z
Home / C / Coral / Wildfire tab

Coral - Wildfire tab

-------------------------------------------------------------------------------
	           Wildfire  The Coral
-------------------------------------------------------------------------------
Tabbed by: Ben Pattyson	

Great song to play. Enjoy and cheers. 

Note 1: in some parts I have added the keyboard/organ bits in brackets
Note 2: heavy use of delay in parts

Intro
                 
e|-------------------------------------------------------------------------|
B|----------(7)---------------------------------(8)------------------------|
G|-(9)---(9)--------------------------(9)---(9)----------------------------| x2
D|----(9)--------10-9-7-9-7--------------(9)----------10-9-7-9-7-----------|
A|--------------------------10-9-10------------------------------10-9-10---|
E|-------------------------------------------------------------------------|

(0:17)

e|-------------------------------------------------------------------------|
B|----------(7)-------------------------------(8)--------------------------|
G|-(9)---(9)------------------------(9)---(9)------------------------------| x3
D|----(9)-------10-9-7-9-7-------------(9)------------------7------9-10-9--|
A|-------------------------10-9-10------------------10-7-10---10-7---------|
E|-------------------------------------------------------------------------|

(0:40)

e|---------------------------------|
B|---------------------------------|
G|---------------------------------| x2
D|-----5--------------5------------|
A|-7-7---7---7-6-5-3-----3-2-3-----|
E|---------------------------------|

(0:47)
[ Tab from: http://www.guitaretab.com/c/coral/171190.html ]
e|-------------------------------------------------------------------------|
B|----------(7)---------------------------------(8)------------------------|
G|-(9)---(9)--------------------------(9)---(9)----------------------------| x2
D|----(9)--------10-9-7-9-7--------------(9)----------10-9-7-9-7-----------|
A|--------------------------10-9-10------------------------------10-9-10---|
E|-------------------------------------------------------------------------|

(1:02)

e|---------------------------------|
B|---------------------------------|
G|---------------------------------| x2
D|-----5--------------5------------|
A|-7-7---7---7-6-5-3-----3-2-3-----|
E|---------------------------------|

(1:10)
  F#           Bm
e|--------------------------|
B|--------------------------|
G|-3-4-6-4-3---4-6-7-6-4----| x6
D|--------------------------|
A|--------------------------|
E|--------------------------|

(1:31)

e|-0--0--0--0--0--0----0--0----0--0--0--0--0--0--0--0----|
B|-0--0--0--0--0--0-0--0--0-0--0--0--0--0--0--0--0--0----|
G|-2--2--2--2--3--3-3--3--3-3--4--4--6--6--8--8--8--8----|
D|-3--3--2--3--4--4-4--4--4-4--5--5--7--7--9--9--9--9----|
A|-3-----3-----4-------4-------5-----7-----9-----9-------|
E|-0-----0-----0-------0-------0-----0-----0-----0-------|

(1:46)

e|---------------------------------|
B|---------------------------------|
G|---------------------------------| x2
D|-----5--------------5------------|
A|-7-7---7---7-6-5-3-----3-2-3-----|
E|---------------------------------|

(2:00)

Same as already tabbed till end.

End on Em.


===============================================================================

Related for Wildfire tab