Guitaretab - guitar tabs
Song name
# A B C D E F G H I J K L M N O P Q R S T U V W X Y Z
Home / C / Coral / The Box tab

Coral - The Box tab

                     The Coral - The Box
------------------------------------------------------------------------------------------------
standard tuning

Great song with great lyrics from the best band around.
please rate,comments/corrections appreciated.

chords used - Am/ Emaug5/ Dm/ E/ C#m/ A  /dont know names of rest

Verses.   Am             Emaug5            Dm             E
e----------0-----0----------0-----0----------1-----1------------------------|
b--------1---1-----1------1---1-----1------3---3-----2--------0-----0-------|
g------2-------2--------0-------2--------2-------2----------1---1-----1-----|
d----2----------------2----------------0------------------2-------2---------|
a-------------------------------------------------------2-------------------|
E---------------------------------------------------------------------------|
[ Tab from: http://www.guitaretab.com/c/coral/178160.html ]
middle.          play twice
e-------------------------5-5-5-5--4-4-4-4----------------------------------|
b-------------------------5-5-5-5--4-4-4-4----------------------------------|
g-------------------------6-6-6-6--5-5-5-5----------------------------------|
d---11-11--9-9--7-7--6-6--7-7-7-7--6-6-6-6----------------------------------|
a---11-11--9-9--7-7--6-6--7-7-7-7--6-6-6-6----------------------------------|
E---9--9---7-7--5-5--4-4--5-5-5-5--4-4-4-4----------------------------------|


organ part.      play twice quick
e------------------------------------------------------------------------------|
b---9p-5h-7p-4h-5p-2h-4p-0-----------------------------------------------------|
g---------------------------------------------------------------------------d--|
a------------------------------------------------------------------------------|
E------------------------------------------------------------------------------|

please add any coral tabs you know that are not on u-g. thanks
c'mon Aberdeen F.C
Related for The Box tab
Advertisement will be closed in 10 seconds