Song name
# A B C D E F G H I J K L M N O P Q R S T U V W X Y Z

Coral - Simon Diamond tab

			  SIMON DIAMOND - The Coral

INTRO:

   Dm        Dm7       Dm        Dm7
e|---5---------5---------5---------5-------|
B|-----6---------6---------6---------6-----|  X2
G|-7-----7---5-----5---7-----7---5-----5---|
D|-----------------------------------------|
A|-----------------------------------------|
E|-----------------------------------------|


VERSES 1 AND 2:

   Dm        Dm7       Dm        Dm7       Dm        Dm7
e|---5---------5---------5---------5---------5---------5------|
B|-----6---------6---------6---------6---------6---------6----|
G|-7-----7---5-----5---7-----7---5-----5---7-----7---5-----5--|
D|------------------------------------------------------------|
A|------------------------------------------------------------|
E|------------------------------------------------------------|
 1.Simon     Diamond   Sold his  Soul	   Changed his Name by
 2.Started   Out as    Simon     Russell   Lived his Life  


   Cm        Dm
e|---3---------5------|
B|-----4---------6----|
G|-5-----5---7-----7--|
D|--------------------|
A|--------------------|
E|--------------------|
 1.Deed	     Poll
 2.Inside a Nutshell



   cm        Cm	       Dm        Dm        Fm          Fm
e|---3---------3---------5---------5----------8-----------8-------|
B|-----4---------4---------6---------6----------9-----------9-----|
G|-5-----5---5-----5---7-----7---7-----7---10-----10---10-----10--|
D|----------------------------------------------------------------|
A|----------------------------------------------------------------|
E|----------------------------------------------------------------|
   ooooooooooooooooh   ooooooooooooooooh   oooooooooooooooooooooh
   
   Em        Em	       Em  
e|---7---------7---------7----------|
B|-----8---------8---------8--------|
G|-9-----9---9-----9---9-----9---9--|
D|----------------------------------|
A|----------------------------------|
E|----------------------------------|
   oooooooooooooooooooooooooooooooh



VERSE 3 (Same as 1 and 2):

   Dm       Dm7      Dm     Dm7
He couldn't take the public scorn
Dm           Dm7   Cm       Dm
Changed from human to plant form
Dm       Dm7         Dm       Dm7
Now He's swapped his legs for roots
    Dm       Dm7      Cm   Dm
His arms and soil are in cahoots
Cm      Dm	 Fm	 Em
oooooooooh...


CHORUS:
Dm          C       Dm    C
What will become of Simon Diamond
       Dm    C
He can water himself
          Dm         C
But Can't change the climate

Dm          C       Dm    C
What will become of Simon Diamond
       Dm    C
He can water himself
          Dm         C
But Can't change the climate


OUTRO:

   Dm        Dm7       Dm        Dm7
e|---5---------5---------5---------5-------|
B|-----6---------6---------6---------6-----|
G|-7-----7---5-----5---7-----7---5-----5---|
D|-----------------------------------------|
A|-----------------------------------------|
E|-----------------------------------------|
   That'll do	       That'll do...		[REPEAT TO FADE]
Tap to rate this tab
 
# A B C D E F G H I J K L M N O P Q R S T U V W X Y Z