Song name
# A B C D E F G H I J K L M N O P Q R S T U V W X Y Z

Coral - Spanish Main tab

The Coral - Spanish Main 

By Simon Ryder (ryder_simon@hotmail.com)

This is the first tab i've bothered to tab out for people. If there is any feedback/mistakes, 
feel free to e-mail me


In the key of Eb

Intro 

E---------------------------------------------------------------
B---------------------------------------------------------------
G---------------4---------------------------4-------------------
D-------8-----------8-------8-------8-----------8-------8-------
A---6-------6-----------6---------------6-----------6-----------
E-------------------------------6-------------------------------


Main

Very similar to intro

E---------------------------------------------------------------
B---------------------------------------------------------------
G---------------4---------------------------4-------------------
D-------8-----------8-------8-------8-----------8-------8-------
A---6-------6-----------6-------6-------6-----------6-----------
E---------------------------------------------------------------


The is also another way to play in intro/main if people can't do
the stretch but you sacrifice the
ringing out of the note

E---------------------------------------------------------------
B---------------------------------------------------------------
G---------------------------------------------------------------
D-------8-------9----8-------8-------8-----9------8-------8-----
A---6-------6-----------6-------6-------6-------------6---------
E---------------------------------------------------------------

Sliding part

Tremelo picking throughout


E---------------------------------------------------------------
B---------------------------------------------------------------
G---8-------11------15------------------------------16------15--
D---------------------------------------------------------------
A---------------------------------------------------------------
E---------------------------------------------------------------


That's just about it. Play the Eb note (6th fret on A string for the bass part)

And that's about it.
Tap to rate this tab
 
# A B C D E F G H I J K L M N O P Q R S T U V W X Y Z