Song name
# A B C D E F G H I J K L M N O P Q R S T U V W X Y Z

Coral - Something Inside Of Me tab

-------------------------------------------------------------------------------
		       SOMETHING INSIDE OF ME - THE CORAL
-------------------------------------------------------------------------------
Tabbed by: Bob Cheel
Email: panelface_bob@hotmail.com

Tuning: Standard

             H     E. S Q    Q E.  S E.S Q   Q  Q  E.S Q  Q Q E.S Q
E|--------|----------------|---------------|-------------|-------------------|
B|--------|----------------|---------------|-------------|-------------------|
G|-(drum--|--------6--8-9--|-------1-4-3-1-|-3--3--3-4-6-|-4-4-4-3-1---------|
D|--fill)-|----------------|---------------|-------------|-------------------|
A|--------|----------------|---------------|-------------|-------------------|
E|--------|----------------|---------------|-------------|-------------------|

Verse 1
   H.    Q    H.    Q   H.    Q   H.    Q
e|-------4--|-------4-|-------6-|-------7-|
B|-------5--|-------4-|-------6-|-------7-|
G|-------6--|-------4-|-------6-|-------8-|
D|----------|---------|---------|---------|
A|----------|---------|---------|---------| x2
E|----------|---------|---------|---------|

Chorus
   H      E E Q    H       E E Q    H       E E Q      H         E E Q
e|---------------|----------------|------------------|-----------------------|
B|--------6b8r6--|---------8b9r8--|---------6b8r6----|-----------8b9r8-------|
G|---------------|----------------|------------------|-----------------------|
D|---------------|----------------|------------------|-----------------------|
A|---------------|----------------|------------------|-----------------------|
E|---------------|----------------|------------------|-----------------------|

   H      E E Q    H       E E Q    W                   E E E E E E E E 
e|---------------|----------------|------------------|-----------------------|
B|--------6b8r6--|---------8b9r8--|------------------|-----------------------|
G|---------------|----------------|------------------|-----------------------|
D|---------------|----------------|------------------|-----------------------|
A|---------------|----------------|------------------|----------------6------|
E|---------------|----------------|------------------|----4-4-4-4-4-4--------|

Verse 2
   H.    Q    H.    Q   H.    Q   H.    Q
e|-------4--|-------4-|-------6-|-------7-|
B|-------5--|-------4-|-------6-|-------7-|
G|-------6--|-------4-|-------6-|-------8-|
D|----------|---------|---------|---------|
A|----------|---------|---------|---------| x2
E|----------|---------|---------|---------|

Chorus
   H      E E Q    H       E E Q    H       E E Q      H         E E Q
e|---------------|----------------|------------------|-----------------------|
B|--------6b8r6--|---------8b9r8--|---------6b8r6----|-----------8b9r8-------|
G|---------------|----------------|------------------|-----------------------|
D|---------------|----------------|------------------|-----------------------|
A|---------------|----------------|------------------|-----------------------|
E|---------------|----------------|------------------|-----------------------|

   H      E E Q    H       E E Q    W                   E E E E E E E E 
e|---------------|----------------|------------------|-----------------------|
B|--------6b8r6--|---------8b9r8--|------------------|-----------------------|
G|---------------|----------------|------------------|-----------------------|
D|---------------|----------------|------------------|-----------------------|
A|---------------|----------------|------------------|----------------6------|
E|---------------|----------------|------------------|----4-4-4-4-4-4--------|

Guitar Solo
    H     E. S Q    Q E.  S E.S Q   Q  Q  E.S Q  Q Q E.S Q
E|----------------|---------------|-------------|-------------------|
B|----------------|---------------|-------------|-------------------|
G|--------6--8-9--|-------1-4-3-1-|-3--3--3-4-6-|-4-4-4-3-1---------|
D|----------------|---------------|-------------|-------------------|
A|----------------|---------------|-------------|-------------------|
E|----------------|---------------|-------------|-------------------|

    Q E.S E. S E.S  E Q  Q E Q      Q  E.S Q E.S     E  Q  Q  E  Q
E|----------------|---------------|----------------|-------------------|
B|----------------|---------------|----------------|-------------------|
G|----6-6-6--8-9--|---------------|-3--3-1-3-3-1---|-4--4--3--4--3-----|
D|------6--------6|-9-8--6-8-9----|----------------|-------------------|
A|----------------|---------------|----------------|-------------------|
E|----------------|---------------|----------------|-------------------|

   Q Q   E.S E E   Q   S E. E Q.   Q Q   E.S E E   Q   S E. E Q.
e|---------------|---------------|---------------|----------------------------|
B|---------------|---------------|---------------|----------------------------|
G|---8---8-6-8-6-|-6----------6--|-8-8---8-6-8-6-|-6----------6---------------|
D|---------------|-----8-8--8----|---------------|-----8-8--8-----------------|
A|---------------|---------------|---------------|----------------------------|
E|---------------|---------------|---------------|----------------------------|

   Q Q   E.S E E   Q   S E. E Q.   Q   Q   Q   Q   Q   Q   Q   Q
e|---------------|---------------|---------------|-----------------|
B|---------------|---------------|---------------|-----------------|
G|-8-8---8-6-8-6-|-6----------6--|-6---6---8---8-|-4---4---4---4---|
D|---------------|-----8-8--8----|-8---8---9---9-|-6---6---6---6---|
A|---------------|---------------|-8---8---9---9-|-----------------|
E|---------------|---------------|---------------|-----------------|

Bridge
    H     H       Q  Q  H    W          Q   Q   H   W          E E Q H
e|--------6~----|-------7--|----------|---------7-|----------|-------7------|
B|--6-----------|-7--7-----|-6--------|-7---7-----|-6--------|-7---7--------|
G|--6-----------|-8--------|-6--------|-8---------|-6--------|-8-8----------|
D|--8-----------|-9--------|-8--------|-9---------|-8--------|-9------------|
A|--8-----------|-9--------|-8--------|-9---------|-8--------|-9------------|
E|--6-----------|-7--------|-6--------|-7---------|-6--------|-8------------|

    H     H       Q  Q  H
e|--------------|-------7--|
B|--6-----------|-7--7-----|
G|--6-----------|-8--------|
D|--8-----------|-9--------|
A|--8-----------|-9--------|
E|--6-----------|-7--------|

Verse 3
   H.    Q    H.    Q   H.    Q   H.    Q
e|-------4--|-------4-|-------6-|-------7-|
B|-------5--|-------4-|-------6-|-------7-|
G|-------6--|-------4-|-------6-|-------8-|
D|----------|---------|---------|---------|
A|----------|---------|---------|---------| x2
E|----------|---------|---------|---------|

Chorus
   H      E E E E  H       E E E E  H       E E E E    H         E E E E
e|---------------|----------------|------------------|-----------------------|
B|--------6b8r6b8|---------8b9r8b9|---------6b8r6b8--|-----------8b9r8b9-----|
G|---------------|----------------|------------------|-----------------------|
D|---------------|----------------|------------------|-----------------------|
A|---------------|----------------|------------------|-----------------------|
E|---------------|----------------|------------------|-----------------------|

   H      E E E E  H       E E E E  W                   W
e|---------------|----------------|------------------|-----------------------|
B|--------6b8r6b8|---------8b9r8b9|------------------|-----------------------|
G|---------------|----------------|------------------|-----------------------|
D|---------------|----------------|------------------|-----------------------|
A|---------------|----------------|------------------|-----------------------|
E|---------------|----------------|------------------|-----------------------|

| /  slide up
| \  slide down
| h  hammer-on
| p  pull-off
| ~  vibrato
| +  harmonic
| x  Mute note
======================================================
Tap to rate this tab
# A B C D E F G H I J K L M N O P Q R S T U V W X Y Z