Song name
# A B C D E F G H I J K L M N O P Q R S T U V W X Y Z

Coral - Arabian Sand tab

----------------------------------------------------------------------------
			     The Coral - Arabian Sand
----------------------------------------------------------------------------
Tabbed by:Rob McHugh
Email:hobo_from_thecorner@hotmail.com

Tuning:EADGBe

Intro:

(Arabian Sand...)
e|-----------------------------------------------|
B|-----------------------------------------------|
G|--5-77-5-7-9-11-12-11-9-7-5-77-5-7-------------|
D|--5-77-5-7-9-11-12-11-9-7-5-77-5-7-------------|
A|--3-55-3-5-7-9--10-9--7-5-3-55-3-5-------------|
E|-----------------------------------------------|(x2)

Verse:

(Mad man in the desert...)
e|-------------------------------------|-------------------------------|
B|--4-------3-------6-------5----------|-------------------------------|
G|--3-------3-------5-------5----------|--77777------------------------|
D|--5-------3-------7-------5----------|--77777------------------------|
A|--3(x4)---3-(x4)--5(x4)---5-(x4)-----|--55555-(x3)-------------------|
E|---------------------------------{x6}|-------------------------------|


Then back to the intro 
Then the verse.
Then the intro build into the solo.
The solo is mainly bends on the pentatonic scale around the 9th fret on
the G-string.

The intro is played under the solo

The song then finishes with:
e|-------------------------------------------------------------------------|
B|-------------------------------------------------------------------------|
G|-5555/7777/9999/11111111/12121212/141414/161616161616161616--------------|
D|-5555/7777/9999/11111111/12121212/141414/161616161616161616--------------|
A|-3333/5555/7777/9-9-9-9-/10101010/121212/141414141414141414--------------|
E|-------------------------------------------------------------------------|

And that's about it.


| /  slide up
| \  slide down
| h  hammer-on
| p  pull-off
| ~  vibrato
| +  harmonic
| x  Mute note
===============================================================================
Tap to rate this tab
 
# A B C D E F G H I J K L M N O P Q R S T U V W X Y Z