Song name
# A B C D E F G H I J K L M N O P Q R S T U V W X Y Z

Coral - In The Rain tab

-------------------------------------------------------------------------------
			     In The Rain – The Coral
-------------------------------------------------------------------------------
Tabbed by: Ben Pattyson	
Email: benpattyson@yahoo.com

Intro/Riff

e|----0----0----0-----------|
B|--------------------------|
G|-10---12---14---14b15r----| x8
D|--------------------------|
A|--------------------------|
E|--------------------------|

Verse	

  Dm               F            Gm
e|-10~---------------------------3-3--3-3-3-3---|
B|-10~-------------10~-----------3-3--3-3-3-3---|
G|-10~-------------10~-----------3-3--3-3-3-3---|
D|-12~--------8----10~-----------5-5--5-5-5-5---|
A|-----------------8~------------5-5--5-5-5-5---|
E|-------------------------------3-3--3-3-3-3---|

  ‘And when we meet again…’
  Gm          Am        Bb        Am       Bb        C       F
e|-----3----------5---------6---------5--------6--------8-------13-------13------|
B|---3---3------5---5---------6-----5---5--------6--------8--------13-------13---|
G|-------------------------7------------------7--------9-------------------------|
D|-5----------7---------8---------7--------8--------10-------15-------15---------|
A|-------------------------------------------------------------------------------|
E|-------------------------------------------------------------------------------|

  Gm         Am   C
e|-3---3-----5----8--------|
B|-3---3-----5----8--------|
G|-3---3-----5----9--------|
D|-5---5-----7----10-------|
A|-5---5-----7----10-------|
E|-3---3-----5----8--------|

Solo

   Dm        F        Dm       F
e|-10-----------------10----------------------------------------------------------|
B|-10-------10--------10-------10---------------------------------------13b15r----|
G|-10-------10--------10-------10---12~-12~-12~--12~-12~-12~-12b14r-10--------10~-|
D|-12-------10--------12-------10-------------------------------------------------|
A|-12-------8---------12-------8--------------------------------------------------|
E|-10-----------------10----------------------------------------------------------|

e|-----------------------------------------13--------------------------|
B|--------------------------------------------13-----13----13----------|
G|-12~-12~-12~--12~-12~-12~-12--12b14r-----------14-----14----14-------|
D|-------------------------------------10------------------------14----|
A|---------------------------------------------------------------------|
E|---------------------------------------------------------------------|

I’m open to any corrections.Cheers.

| b  bend
| ~  vibrato
===============================================================================

Tap to rate this tab
 
# A B C D E F G H I J K L M N O P Q R S T U V W X Y Z