Guitaretab - guitar tabs
Song name
# A B C D E F G H I J K L M N O P Q R S T U V W X Y Z

Coral - Leaving Today tab

-------------------------------------------------------------------------------
	      Leaving Today  The Coral
-------------------------------------------------------------------------------
Tabbed by: Ben Pattyson	

Open to corrections. Cheers.

Intro

  E G#m F#m            G#m  E G#m F#m          G#m  E G#m F#m             G#m
e|---------------------------------------------------------------------------|
B|----------------------------------5b6r5-5b6r5-4--7b8r7-7b8-----------------|
G|----------4b5r4-4b5r4----------------------------------------4b5r4-4b5r4---|
D|-2-4s6-4--------------6---2-4s6-4----------------------------------------6-|
A|---------------------------------------------------------------------------|
E|---------------------------------------------------------------------------|

  E  G#m F#m           G#m  E    G#m
e|-------------------------------------|
B|---------5b6r5-5b6r5-4---7b8r7-7b8---|
G|-------------------------------------|
D|-2-4s6-4-----------------------------|
A|-------------------------------------|
E|-------------------------------------|

Verse chords: same as intro

Pre-Chorus
[ Tab from: http://www.guitaretab.com/c/coral/96514.html ]
   E F#m G#m         C#m
e|-----------------------------4-4-4-4-4-4-4--|
B|-5--7--9------9-----9-----9--5-5-5-5-5-5-5--|
G|-----------8-----8-----6-----6-6-6-6-6-6-6--|
D|-----------------------------6-6-6-6-6-6-6--|
A|--------------------------------------------|
E|--------------------------------------------|

  F#m      G#m         F#m     G#m         F#m     G#m
e|-----14------------------14------------------14--------------|
B|-14------------------14------------------14------------------|
G|---------16---13-16----------16---13-16----------16---13-16--|
D|-------------------------------------------------------------|
A|-------------------------------------------------------------|
E|-------------------------------------------------------------|

Chorus

  F#m            G#m E G#m  F#m          G#m  E G#m F#m
e|------------------------------------------------------|
B|-10-10--10--10--9---------10-10--10--10-9-------------|
G|-9--9---11--9---8----------9--9--11--9--8-------------|
D|---------------------------------------------2-4s6-4--|
A|------------------------------------------------------|
E|------------------------------------------------------|

Outro same as intro.

| s  slide 
| b  bend
| r  release
===============================================================================

Related for Leaving Today tab