Song name
# A B C D E F G H I J K L M N O P Q R S T U V W X Y Z

Coral - Jaqueline tab

Capo 4

Intro - D

             Em         A
e|--3/5/3-2-3-0---3-2-0------------|
B|--------------0-------2-2-3-5----|
G|---------------------------------|
D|---------------------------------|
A|---------------------------------|
E|---------------------------------|

    D         G
e|--------2-0----------------------|
B|--2-3-------3-0-0-0--------------|
G|------2--------------------------|
D|---------------------------------|
A|---------------------------------|
E|---------------------------------|
              Em        A       D
e|--3/5/3-2-3-0---3-2-0-------------------|
B|--------------0-------2-2-3-5-3-3-3-3-3-|
G|----------------------------------------|
D|----------------------------------------|
A|----------------------------------------|
E|----------------------------------------|


| /  slide up
| \  slide down
| h  hammer-on
| p  pull-off
| ~  vibrato
| +  harmonic
| x  Mute note
Tap to rate this tab
 
# A B C D E F G H I J K L M N O P Q R S T U V W X Y Z