Song name
# A B C D E F G H I J K L M N O P Q R S T U V W X Y Z

Corb Lund Band - Devils Best Dress chords

Highlighted       Show chord diagrams
Song: Devil's Best Dress
Band: Corb Lund and the Hurtin' Albertans
Album: Losin' Lately Gambler
Label: New West Records
Written By: Corb Lund
Tabbed/Chorded By: ultimatelefty

Great song by Corb, gotta be one of my favourites off of Losin' Lately Gambler!
Watching videos on Youtube to get me started, there are covers off the song where the
people covering it play with the Capo on the 2nd fret, but Corb definitely plays with the
Capo on the 6th fret. Please Rate, Comment, and Enjoy!

C    - 332010
Am   - x02210
F    - 133211
Fmaj7- 133111
G    - 320033

Standard Tuning

Capo 6th

Intro:

e|-0-----0-1/3-1-------|
B|-1-------------3/5-1-|
G|-0---0---------------|
D|-2-------------------|
A|-3-3-----------------|
E|---------------------|

           C                       Am
There is a woman, she lives in the west
              C                             Am
She's not the devil, but she wears his best dress
                   C                              Am
She's quicker than lightning with the iron on her hips
                   C                                Am
She's quicker than lightning and they say she don't miss

  F                       Fmaj7
I can't say I love you, I don't hardly know you
     C                            G
They warned me about you from the start
                                                                 C
They said "Don't you cross her, if you don't want a hole in your heart"

                  C                               Am
The dress hides a pistol, a top-break Schofield I think
            C                                 Am
Not that it matters when you're outdrawn in a blink
                   C                            Am
She builds her own cartridge, it's a wildcatted load
                  C                          Am
With a wadcutting bullet for a blood letting wound

  F                       Fmaj7
I can't say I love you, I don't hardly know you
     C                            G
They warned me about you from the start
                                                                 C
They said "Don't you cross her, if you don't want a hole in your heart"

Solo:

e|---------0-1-0---1/3-|---------0-1-0-------------|
B|-------1-------3-----|-------1-------1/3-1-1-1-1-|
G|-----0---------------|-----0---------------------|
D|---2-----------------|---2-----------------------|
A|-3-------------------|-3-------------------------|
E|---------------------|---------------------------|

e|---------0-1-0---1/3-3-3-3-3/5-5-5\3-3-3-3-3-------------------|
B|-------1-------3-----------------------------------------------|
G|-----0---------------------------------------2/4-2-0-----------|
D|---2-------------------------------------------------2-0-------|
A|-3-------------------------------------------------------3-2-0-|
E|---------------------------------------------------------------|

  F                       Fmaj7
I can't say I love you, I don't hardly know you
     C                            G
They warned me about you from the start
                                                                 C
They said "Don't you cross her, if you don't want a hole in your heart"

           C                       Am
There is a woman, she lives in the west
              C                                Am
She's not the devil, but she wears his best dress


And there you have it!! I didn't tab out the little licks in the verses in choruses from 
Grant Siemens,
but it shouldn't be too hard to figure them out, with a little bit of fooling around 
you'll probably find it,
plus there's six less frets to fool around with.

************************************

| /   slide up
| \   slide down
| h   hammer-on
| p   pull-off
| ~   vibrato
| +   harmonic
| x   Mute note
| b   Bend
| pb  Pre-bend
| br  Bend release
| pbr Pre-bend release
| brb Bend release bend

************************************
Tap to rate this tab
# A B C D E F G H I J K L M N O P Q R S T U V W X Y Z