Song name
# A B C D E F G H I J K L M N O P Q R S T U V W X Y Z

Corb Lund Band - Cows Around tab

Cows Around - Corb Lund
This is the intro to this awesome song! I will be working on the rest of the 
chords but haven't got around to it yet. The /1 are more of a hammer on than a 
slide but I just used that as the symbol. Have fun playing this awesome intro lick.


|---------------------------|---------------------|----------------------------------|
|--5-4-5-4-2----------------|---------------------|----------------2-------5-5-5-5-2-|
|------------4-2-1---1-1--1-|-1-1----------/1-----|------/1-4-/1-4--4-/1-4-----------|
|-----------------4-2---4---|-----4-2---2-4--4----|--2-4-----------------------------|
|---------------------------|---------4--------4--|----------------------------------|
|---------------------------|---------------------|----------------------------------|


|-------------------------------|
|----2-5-2----------------------|
|--4-------4-1-4-4-1------------|
|--------------------2----------|
|----------------------4-2------|
|--------------------------4-0--|

Moo.....
Tap to rate this tab
# A B C D E F G H I J K L M N O P Q R S T U V W X Y Z