Song name
# A B C D E F G H I J K L M N O P Q R S T U V W X Y Z

Corb Lund Band - Daughter Dont You Marry tab

Intro

e|----------------------------------------------------------------------|
b|---------------------------------5b-----------------------------------|
g|-4h5h6-6-6--4h5h6-6-6--4h5h6-6-6----6-4h5h6-6-6--4h5h6-6-6--4h5h6-6-6-|
d|----------------------------------------------------------------------|
a|----------------------------------------------------------------------|
e|----------------------------------------------------------------------|

e|--------------------------------------------------------------|
b|----------------5-7-5-7b-7-5----------------------------------|
g|-4b---4h5h6-6-6--------------6--4h5h6-6-6-4---4-----------8---|
d|----6---------------------------------------6---6-4-------9---|
a|----------------------------------------------------7-5---9---|
e|----------------------------------------------------------7---|


Riff 1

e|---------------------------|
b|-----------5-7-5-7b-7-5----|
g|-4h5h6-6-6--------------6-|
d|---------------------------|
a|---------------------------|
e|---------------------------|

Riff 2

e|----------------------------------------------------|
b|-----------5-7-5-7b-7-5-----------------------------|
g|-4h5h6-6-6--------------6--4h5h6-6-6-4---4----------|
d|---------------------------------------6---6-4------|
a|-----------------------------------------------7-5--|
e|----------------------------------------------------|


Db (barre)					Riff 1
Who should I marry, Daddy who should I marry?
Db						Riff 1
Daughter, don't you marry no soldier sailor
Db						Riff 1
Daughter, don't you marry no young crusader
Db
Daughter, don't you marry no guitar picker
Db						      B     Riff 2
Cuz they ain't no good and they ain't gonna stick around
Db						Riff 1
Daughter, don't you marry no degenerate gambler
Db						Riff 1
Daughter, don't you marry no Hollywood wrangler
Db
Daughter, don't you marry no guitar picker
Db						      B
Cuz they ain't no good and they ain't gonna stick around

Then Db for one bar and then move the entire thing up one half step for the next verse 
play D and C barre chords
Tap to rate this tab
# A B C D E F G H I J K L M N O P Q R S T U V W X Y Z