Song name
# A B C D E F G H I J K L M N O P Q R S T U V W X Y Z

Corbin Bleu - Still There For Me tab

Intro/verse:

|-------------------------------------|
|---------3----------6-----------8----|
|------4-----------6-----------8------|
|---4------------5-----------8--------| x2
|-2-----------4-----------6-----------|
|-------------------------------------|

after the second time:

|------------------------|
|------------------------|
|-------0----------0-----|
|-----2---------2--------|
|---2---------2----------|
|-0--------0-------------|

"Lately I've been thinking
About the things that we've been through
And I don't know if I'd be here,
If not for you

I had to take a little time 
To try to work things out
And You should know that
I have never meant 
To let you down"

Pre-chorus:
|---------------------------------|
|---------------------------------|
|----------7-7--------------------|
|-5-5--7-7-7-7--7-7-5-5--7--------|
|-5-5--7-7-5-5--7-7-5-5--7-(pause)|
|-3-3--5-5------5-5-3-3--5--------|
(Strum slowly, listen to the song for the pattern)
"Cause I, I
Wannna tell you that I'm sorry
And I, I"

Chorus:
|-----------------|
|-----------------|
|-4-4-----7-7-----|
|-4-4-5-5-7-7-7-7-|
|-2-2-5-5-5-5-7-7-|
|-----3-3-----5-5-|

"Even when I'm not giving enough 
And I'm taking too much
You're still there for me
Even when I got nothing at all
And I'm ready to fall
You're still there for me
There for me
There for me"

|--------------------|
|--------------------|
|--------------------|
|--5-5-7-7-5---------|
|--5-5-7-7-5-(pause)-|
|--3-3-5-5-3---------|

"Even when I can't be there for you
You're always there for me"

|-------------------------------------|
|---------3----------6-----------8----|
|------4-----------6-----------8------|
|---4------------5-----------8--------| x2
|-2-----------4-----------6-----------|
|-------------------------------------|

after the second time:

|------------------------|
|------------------------|
|-------0----------0-----|
|-----2---------2--------|
|---2---------2----------|
|-0--------0-------------|

"Sometimes I know I can be 
So hard to understand (It's ok)
Even when I'm lost
You show me who I really am
Life with me hasn't always been an easy ride
But because of you I've learned
To lose my selfish pride"


|-----------------------------|
|-----------------------------|
|----------7-7----------------|
|-5-5--7-7-7-7--5-5--7--------|
|-5-5--7-7-5-5--5-5--7-(pause)|
|-3-3--5-5------3-3--5--------|
"Cause I, I
Wannna tell you that I'm sorry
And I, I"

|-----------------|
|-----------------|
|-4-4-----7-7-----|
|-4-4-5-5-7-7-7-7-|
|-2-2-5-5-5-5-7-7-|
|-----3-3-----5-5-|
Even when I'm not giving enough 
And I'm taking too much
You're still there for me
Even when I got nothing at all
And I'm ready to fall
You're still there for me
There for me
There for me

|--------------------|
|--------------------|
|--------------------|
|--5-5-7-7-5---------|
|--5-5-7-7-5-(pause)-|
|--3-3-5-5-3---------|
"Even when I can't be there for you
Oh you're always there for me yeah"

Bridge: (I haven't figured it out yet, i'll update it when i do.)
"Oh no it's love
Ooooouuhhh (Oooohhh)
It must be love
Ooohhh
It's gotta be real love (It's gotta be real love)"

|-----------------|
|-----------------|
|-4-4-----7-7-----|
|-4-4-5-5-7-7-7-7-|
|-2-2-5-5-5-5-7-7-|
|-----3-3-----5-5-|
Even when I'm not giving enough 
And I'm taking too much
You're still there for me
Even when I got nothing at all
And I'm ready to fall
You're still there for me
There for me
There for me

Even when I can't be there for you (When I can't be there)
Even when I can't be there for you 
You're always there for me 

End on D chord:

|--------2----|
|------3------|
|----2--------|
|--0----------|
|-------------|
|-------------|

http://www.corbinbleu.com/
Tap to rate this tab
 
# A B C D E F G H I J K L M N O P Q R S T U V W X Y Z