Song name
# A B C D E F G H I J K L M N O P Q R S T U V W X Y Z

Corby Yates - Headin To The Rodeo tab

This is a great song by a great bullrider hope it sounds right.

Strum down= >
Strum up=   <


Intro/Verse:
          >  <              >  <              >  <
E---------3--3----|---------3--3----|---------2--2----|-----------------|
B---------3--3----|---------3--3----|---------3--3----|----------0------|
G---------0--0----|---------0--0----|---------2--2----|----2-2-2---0----|
D---------0--0----|---------2--2----|----0----0--0----|-----------------|
A---------2--2----|----3----3--3----|-----------------|-----------------|
E----3----3--3----|-----------------|-----------------|-----------------|

Chorus:
      >     <           >     <       > < > < > < > <
E-----3-----3-----|-----3-----3-----|-2-2-2-2-2-2-2-2-|
B-----3-----3-----|-----3-----3-----|-3-3-3-3-3-3-3-3-|
G-----0-----0-----|-----0-----0-----|-2-2-2-2-2-2-2-2-|
D-----0-----0-----|-----2-----2-----|-0-0-0-0-0-0-0-0-|
A-----2-----2-----|-----3-----3-----|-----------------|
E-----3-----3-----|-----------------|-----------------|

Verse 1:
Me and my boys are headin' to the rodeo
Gonna fill our pockets full of dough
Gonna take that old Cadillac
Radio cranked up the seats cranked back
Gonna stick my hand up in that rope
I'm ninety to ninety and I better not choke
Them fans are standin up on their feet
Gonna make a hero out of me

Chorus:
You know you wanna win the round
So when that brindle comes around
You better cock your hammer down
Don't quit till you head hits the ground
Go on and lift that leg and spur
You gotta get up in the neck
Step off and pick up your check

Verse 2:
Know it's been a long hard road
Fightin' here cuz you're goin broke
With your head held way down low
Hit up your buddy at the rodeo
As he picked your chin up off the ground
Said boy you better listen to me now

Chorus:
You know you wanna win the round
So when that brindle comes around
You better cock your hammer down
Don't quit till you head hits the ground
Go on and lift that leg and spur
You gotta get up in the neck
Step off and pick up your check

Verse 3:
There's big city lights and Las Vegas nights
It's terror as hell man it's gonna be rough
It's the best of the best
Man it's gonna be tough
Just a friendly talk father and son
Said son I know that you're number one
But you know it's like I always said
Just ride before you nod your head

Chorus:
You know you wanna win the round
So when that brindle comes around
You better cock your hammer down
Don't quit till you head hits the ground
Go on and lift that leg and spur
You gotta get up in the neck
Step off and pick up your check

http://www.myspace.com/therealcolbyyates
Tap to rate this tab
 
# A B C D E F G H I J K L M N O P Q R S T U V W X Y Z