Song name
# A B C D E F G H I J K L M N O P Q R S T U V W X Y Z

Corde Oblique - Cantastorie tab

Artist:Corde Oblique
Album:Volontà D'arte
Title:Cantastorie

Clean guitar

e|----------------|----------------|----------------|----------------|
B|--------------0-|----------------|--------------0-|--------3-1-0---|
G|----0-----0-2---|----0---0-------|----0-----0-2---|----0---------2-|
D|--------4-------|----------4-2-0-|--------4-------|----------------|
A|--2---2---------|--2---2---------|--2---2---------|--2---2---------|
E|0---------------|0---------------|0---------------|0---------------|
 |- U - U - U - U |- U - U - U - U |- U - U - U - U |- U - U - U - U |

e|0---------------|----------------|----------------|----------------|
B|----0---3-1-0---|0---------------|0-------------0-|--------------0-|
G|--------------2-|----0---0-------|----0-----0-2---|----0-----0-2---|
D|--2---2---------|--2---2---4-2-0-|--2---2-4-------|--2---2-4-------|
A|----------------|----------------|----------------|----------------|
E|----------------|----------------|----------------|0---------------|
 |- U - U - U - U |- U - U - U - U |- U - U - U - U |- U - U - U - U |

e|0---------0-----|----------------|----------------|----------------|
B|----0---3---3-1-|0-------------0-|0-------------0-|----------------|
G|----------------|----0-----0-2---|----0-----0-2---|----0-----0-----|
D|--2---2---------|--2---2-4-------|--2---2-4-------|--2---2-4---4-2-|
A|----------------|----------------|----------------|----------------|
E|----------------|----------------|----------------|0---------------|
 |- U - U - U - U |- U - U - U - U |- U - U - U - U |- U - U - U - U |

e|----------------|----------------|----------------|----------------|
B|----------------|----------------|----------------|----------------|
G|----------------|----------------|----------------|----------------|
D|----------------|----------------|----------------|----------------|
A|----------------|----------------|----------------|----------------|
E|----------------|----------------|----------------|----------------|
 |- U - U - U - U |- U - U - U - U |- U - U - U - U |- U - U - U - U |

Qui ci sono degli armonici ma suona bene anche così:
There are some harmonics but it sounds good this way too(sorry for my english :P):
e|12------12------|12------12------|----15------15--|14--12--10------|
B|----------------|----------------|----------------|----------------|
G|----------------|----------------|----------------|----------------|
D|----------------|----------------|----------------|----------------|
A|----------------|----------------|----------------|----------------|
E|----------------|----------------|----------------|----------------|
 |- U - U - U - U |- U - U - U - U |- U - U - U - U |- U - U - U - U |

Aumenta la velocità. Turn faster(sorry for my english :P)
  Em               C                G                D
e|3--33-3--33-3---|0--00-0--00-0---|3--33-3--33-3---|2--22-2--22-2---|X5
B|5--55-5--55-5---|1--11-1--11-1---|3--33-3--33-3---|3--33-3--33-3---|
G|4--44-4--44-4---|0--00-0--00-0---|4--44-4--44-4---|2--22-2--22-2---|
D|----------------|2--22-2--22-2---|5--55-5--55-5---|0--00-0--00-0---|
A|2--22-2--22-2---|3--33-3--33-3---|5--55-5--55-5---|----------------|
E|0--00-0--00-0---|----------------|3--33-3--33-3---|----------------|
 |- U - U - U - U |- U - U - U - U |- U - U - U - U |- U - U - U - U |

  Bm               A                G                A
e|2--22-2--22-2---|0--00-0--00-0---|3--33-3--33-3---|0--00-0--00-0---|X4
B|3--33-3--33-3---|2--22-2--22-2---|3--33-3--33-3---|2--22-2--22-2---|
G|4--44-4--44-4---|2--22-2--22-2---|4--44-4--44-4---|2--22-2--22-2---|
D|4--44-4--44-4---|2--22-2--22-2---|5--55-5--55-5---|2--22-2--22-2---|
A|2--22-2--22-2---|0--00-0--00-0---|5--55-5--55-5---|0--00-0--00-0---|
E|----------------|----------------|3--33-3--33-3---|----------------|
 |- U - U - U - U |- U - U - U - U |- U - U - U - U |- U - U - U - U |

  Em               C                G                D
e|3--33-3--33-3---|0--00-0--00-0---|3--33-3--33-3---|2--22-2--22-2---|X5
B|5--55-5--55-5---|1--11-1--11-1---|3--33-3--33-3---|3--33-3--33-3---|
G|4--44-4--44-4---|0--00-0--00-0---|4--44-4--44-4---|2--22-2--22-2---|
D|----------------|2--22-2--22-2---|5--55-5--55-5---|0--00-0--00-0---|
A|2--22-2--22-2---|3--33-3--33-3---|5--55-5--55-5---|----------------|
E|0--00-0--00-0---|----------------|3--33-3--33-3---|----------------|
 |- U - U - U - U |- U - U - U - U |- U - U - U - U |- U - U - U - U |

  Bm               A                G                A
e|2--22-2--22-2---|0--00-0--00-0---|3--33-3--33-3---|0--00-0--00-0---|X2 
B|3--33-3--33-3---|2--22-2--22-2---|3--33-3--33-3---|2--22-2--22-2---|  
G|4--44-4--44-4---|2--22-2--22-2---|4--44-4--44-4---|2--22-2--22-2---|   
D|4--44-4--44-4---|2--22-2--22-2---|5--55-5--55-5---|2--22-2--22-2---|
A|2--22-2--22-2---|0--00-0--00-0---|5--55-5--55-5---|0--00-0--00-0---|
E|----------------|----------------|3--33-3--33-3---|----------------|
 |- U - U - U - U |- U - U - U - U |- U - U - U - U |- U - U - U - U |
L'ultima volta diminuire gradualmentela velocità e finire in Bm
The last time turn slower and end with Bm

http://www.cordeoblique.com/
Tap to rate this tab
# A B C D E F G H I J K L M N O P Q R S T U V W X Y Z