Song name
# A B C D E F G H I J K L M N O P Q R S T U V W X Y Z

Corelia - Red Sky Harbor tab

Intro

e|----------------0---------4-------------------------|
B|----------------0--------------0--------------------|
G|-----------2-----------------------2----------------|
D|-------4--------------------------------------------|
A|---4------------------0-----------------------------|
E|----------------------------------------------------|
                                                

e|---------------0------------5---4----5h7------------|
B|---------------7------------5--------5--------------|
G|-----------8-------------------------5--------------|
D|-------6--------------------------------------------|
A|---7-------------------3----------------------------|
E|----------------------------------------------------|
                                                   x4
Tap to rate this tab
# A B C D E F G H I J K L M N O P Q R S T U V W X Y Z