Song name
# A B C D E F G H I J K L M N O P Q R S T U V W X Y Z

Coretez - 6 Chamber tab

-------------------------------------------------------------------------------
			     6 Chamber - Coretez
-------------------------------------------------------------------------------
Tabbed by: Wizster
Email: wizster@ctshores.com

Tuning: C-G-C-F-A-C

e|--------------------------------------------------------------------|
B|--------------------------------------------------------------------|
G|--------------------------------------------------------------------|
D|--------------------------------------------------------------------|
A|-----------5-7-----------7-8---------5-7--5-7-5----5----------------|
E|---0 0 0-------0-0-0-----------0-0-0------------8-----7-------------|

					       End1  E2    E3
e|-------------------------------------------------|----|-------------|
B|-------------------------------------------------|----|-------------|
G|-------------------------------------------------|----|-------------|
D|-------------------------------------------------|----|-------------|
A|----------5-7----------7-8---5 7 5--------8-5-10-|-3--|---1---------|
E|--0 0 0-------0-0-0-----------------8 7---8-5-10-|-3--|---1---------|

VERSE

e|--------------------------------------------------------------------|
B|--------------------------------------------------------------------|
G|-------VERSE -------------------------------------------------------|
D|--------------------------------------------------------------------|
A|--------------------------------------------------------------------|
E|-1-2-1-0-1-0--0-0-1-0-----------------------------------------------|

Pre Chorus

e|-------------------------------------------REPEAT--------|
B|--------------------------------------------------------------------|
G|--10--10--10-10--------------------14--14--14--14-------------------|
D|--10--10--10-10---RIFF 1 HERE--10--14--14--14--14---RIFF 1 HERE-----|
A|--8---8---8--8-----------------10--12--12--12--12-------------------|
E|--8---8---8--8-----------------10--12--12--12--12------NO RIFF 2x---|

RIFF 1

e|--------------------------------------------------------------------|
B|--------------------------------------------------------------------|
G|-------------12h14p12 -----12-------12h14p12-----12---------------- |
D|---12h14h15------------15----14-15------------15----14-15-----------|
A|--------------------------------------------------------------------|
E|--------------------------------------------------------------------|

e|--------------------------------------------------------------------|
B|--------------------------------------------------------------------|
G|--12h14p12-------12-------------------------------------------------|
D|-------------15-----------------------------------------------------|
A|--------------------------------------------------------------------|
E|--------------------------------------------------------------------|

e|--------------------------------------------------------------------|
B|--------------------------------------------------------------------|
G|---10-----5---------------------------------------------------------|
D|---10-----5---------------------------------------------------------|
A|---8------3------------5-7----------7 8 ----------------------------|
E|---8------3-----0 0 0-------0 0 0 ----------------------------------|

| /  slide up
| \  slide down
| h  hammer-on
| p  pull-off
| ~  vibrato
| +  harmonic
| x  Mute note
===============================================================================
	WWW.CORE-TEZ.COM
Tap to rate this tab
 
# A B C D E F G H I J K L M N O P Q R S T U V W X Y Z