Song name
# A B C D E F G H I J K L M N O P Q R S T U V W X Y Z

Coretta Scott - Stairs Hit Hard tab

just intro cuz coretta scott is a rlly good band.
its pretty decent, once i grow enough patience im going to tab the whole thing.
HEAVY DISTORTION! the distortion is really high so i probably got the picking wrong. sorry.

e-----------------14-------14----------------|
b-----12-12----12-------12------12-----------|
g--13-------13-------13------13--------------|
d--------------------------------------------|
a--------------------------------------------|
e--------------------------------------------|

e-----------------12-------12----------------|
b-----11-11----11-------11-------11----------|
g--11-------11-------11-------11-------------|
d--------------------------------------------|
a--------------------------------------------|
e--------------------------------------------|

--------------second time through------------

e-----------------14-------14----------------|
b-----12-12----12-------12------12-----------|
g--13-------13-------13------13--------------|
d--------------------------------------------|
a--------------------------------------------|
e--------------------------------------------|

e-----------------12-------14//16------------|
b-----11-11----11-------11-------------------|
g--11-------11-------11----------------------|
d--------------------------------------------|
a--------------------------------------------|
e--------------------------------------------|

--------------play to verse------------------

e--------14~-----------------12~-------------|
b-----12------------------11-----------------|
g--13------------------11--------------------|
d--------------------------------------------|
a--------------------------------------------|
e--------------------------------------------|
    (ROSE MY HAND, AN ITCH TO SATISFY)

PRE CHORUS
e--------------------------------------------|
b--------------------------------------------|
g--------------------------------------------|
d--6~------------------------2~--------------|
a--6~------------------------2~--------------|
e--4~------------------------0~--------------|
      (ABIGAIL IN MY DREAMS)
e--------------------------------------------|
b--------------------------------------------|
g--------------------------------------------|
d--6~------------------------2~--------------|
a--6~------------------------2~--------------|
e--4~------------------------0~--------------|
  (WITH A SHEETH, COME AND SAVE ME)

well thats all =]. more to come hopefully.
AIM - CyaNidexLandMine
EMAIL - dakrayzieaznboi@msn.com


http://corettascott.com/
Tap to rate this tab
 
# A B C D E F G H I J K L M N O P Q R S T U V W X Y Z