Song name
# A B C D E F G H I J K L M N O P Q R S T U V W X Y Z

Corey Crowder - Montana Sky tab

Standard tuning, listen to the song for strumming

Intro

e|--3---3--x--3-----0----0--x--0-----3--3--x--3--3---3--3--3--3---------|
B|--3---3--x--3-----3----3--x--3-----3--3--x--3--3---3--3--3--3---------|
G|--0h2-2--x--2-----0h2--2--x--2-----0--0--x--0--0h2-2--0--0--0h2-------|
D|--0---0--x--0-----0----0--x--0-----0--0--x--0--0---0--0--0--0---------|
A|--0---0--x--------0h2--2--x--2-----3--3--x--3--3---3--3--3--3---------|
E|--3---3--x------------------------------------------------------------|

Verse
e|--3---3--x--3-----0----0--x--0-----3--3--x--3--3--3---3--3------------|
B|--3---3--x--3-----3----3--x--3-----3--3--x--3--3--3---3--3------------|
G|--0h2-2--x--2-----0h2--2--x--2-----0--0--x--0--0--0---0--0------------|
D|--0---0--x--0-----0----0--x--0-----0--0--x--0--0--0---0--0------------|
A|--0---0--x--------0h2--2--x--2-----3--3--x--3--3--0h3-3--3------------|
E|--3---3--x------------------------------------------------------------|

Bridge
e|--3-----5--------------------------------------------------------------|
B|--3-----3--------------------------------------------------------------|
G|--0-----0--------------------------------------------------------------|
D|--2-----0--------------------------------------------------------------|
A|--0-----3--------------------------------------------------------------|
E|-----------------------------------------------------------------------|

Chorus
e|--3-----3-----3-----3-----3---------------------------------------------|
B|--3-----3-----3-----3-----3---------------------------------------------|
G|--0-----0-----0-----0-----2---------------------------------------------|
D|--0-----0-----2-----2-----0---------------------------------------------|
A|--2-----0-----3-----2-----3---------------------------------------------|
E|--3-----2-----------0---------------------------------------------------|  x2

Bridge into Verse (1:08)
e|--3-----3-------3------------------------------------------------------|
B|--3-----3-------3------------------------------------------------------|
G|--0-----0-------0------------------------------------------------------|
D|--0-----0-------0------------------------------------------------------|
A|--3-----0h3-----3------------------------------------------------------|
E|-----------------------------------------------------------------------|

"I am waitin' for something to come my way"(2:16)
e|--3-----3-----3--------------------------------------------------------|
B|--3-----3-----3--------------------------------------------------------|
G|--0-----2-----0--------------------------------------------------------|
D|--2-----0-----0--------------------------------------------------------|
A|--2-----------3--------------------------------------------------------|
E|--0--------------------------------------------------------------------|

At about 2:38 and 2:50, Corey does: e|--3---3--3------------------|
                                    B|--3---3--3------------------|
                                    G|--0h2-2--2p0----------------|
                                    D|--0---0--0------------------|
                                    A|--3---3--3------------------|
                                    E|----------------------------|


this is my frst tab
email me at bwalbs25@homtail.com

-Brico
Tap to rate this tab
# A B C D E F G H I J K L M N O P Q R S T U V W X Y Z