Song name
# A B C D E F G H I J K L M N O P Q R S T U V W X Y Z

Corey Crowder - Starting Forever tab

Starting Forever
By: Corey Crowder


TUNING:DADGAd
       Capo IV


RIFF 1
d ---2p0--4p0--|
a ---0----0----|
g ---0----0----|
d ---4----0----|
A ---0----0----|
D ---0----5----|


RIFF 2
d ---0--0--0--|
a ---0--0--0--|
g ---0--2--4--|
d ---4--0--0--|
A ---2--0--0--|
D ---2--4--5--|


RIFF 3
d ---0--0--0--0--|
a ---0--0--0--0--|
g ---0--0--7--6--|
d ---4--0--0--0--|
A ---5--0--9--7--|
D ---0--5--9--7--|


RIFF 4
d ---0--0--0--0--|
a ---0--0--0--0--|
g ---7--6--4--6--|
d ---0--0--0--0--|
A ---9--7--5--7--|
D ---9--7--5--7--|
Tap to rate this tab
 
# A B C D E F G H I J K L M N O P Q R S T U V W X Y Z