Song name
# A B C D E F G H I J K L M N O P Q R S T U V W X Y Z

Corey Harris - Daily Bread tab

|----------------------------------------------------------------|
|-Artist----:-Corey-Harris---------------------------------------|
|-Track-----:-Daily-Bread----------------------------------------| 
|-Album-----:-Daily Bread----------------------------------------|
|-Website---:-http://www.coreyharrismusic.com/-------------------|
|-Tabbed-by-:-Mingo----------------------------------------------| 
|----------------------------------------------------------------|


e|-------------------------0-------------------------------------|
B|------------------0--2h3--3-2p0h2p0h2p0------------------------|
G|-------------1-2-------------------------2-1-2-0h2p0h2p0h2p0---|
D|-------2-1-2---------------------------------------------------|
A|-----2---------------------------------------------------------|
E|--0------------------------------------------------------------|

e|---------0--------------------------------------------------000|
B|--3--2h3--3-2p0h2p0h2p0--------0----------------------------000|
G|-------------------------2-1-2---2-1-----------1-----1---1--111|
D|-------------------------------------4-6-4-2-1---1--2----2-----|
A|---------------------------------------------------2-----2-----|
E|-------------------------------------------------------0-------|

e|---------------------------------------------------------------|
B|------------------------0--0-----------------------------------|
G|--2-1h2p1-----1---------1--1------2-1----------1---------------|
D|----------2-1--------2--2--2-----------4--2-1--------2-2-------|
A|-------------------2-------------------------------2-2-2-------|
E|-----------------0-------------------------------0-------------|

e|---------------------------------------------------------------|
B|------------------------0--0-----------------------------------|
G|--2-1---------1---------1--1------2-1----------1---------------|
D|-------4--2-1--------2--2--2-----------4--2-1---------2-2-1-2--|
A|-------------------2-------------------------------2-----------|
E|-----------------0-------------------------------0-------------|

e|------------------------------------------------------0--0-----|
B|------------------------0--0--------------------------0--0-----|
G|--2-1---------1---------1--1--------2-1---------1-----1--1-----|
D|-------4--2-1-------------2------2-----4--2-1------------------|
A|-------------------2-2-2----2--2-------------------2-----------|
E|-----------------0-------------------------------0-------------|
Tap to rate this tab
# A B C D E F G H I J K L M N O P Q R S T U V W X Y Z