Song name
# A B C D E F G H I J K L M N O P Q R S T U V W X Y Z

Corey Smith - Its Over tab

Here's my interpretation of The Fire Theft's song It's Over. I'm confident that it's all 
-Alex Dee


Intro:

e|-------------------------------------------|
B|-------------------------8---------7-------|
G|-----4---------6---------------------------|
D|-------0---------0---------0---------0-----|   x 2
A|-----------------------7---------5---------|
E|---3---------5-----------------------------|

Verse:

     G     A     Em    D

e|---3-----5-----7-----5-----|
B|---3-----5-----8-----7-----|
G|---4-----6-----9-----7-----|
D|---5-----7-----9-----7-----|   x 8
A|---5-----7-----7-----5-----|
E|---3-----5-----7-----5-----|

Chorus (The part that goes "You wanted everything..."):

     G  G  G     A  A     G  G  G    F#m F#m

e|---3--3--3-----5--5-----3--3--3-----2--2----|
B|---3--3--3-----5--5-----3--3--3-----2--2----|
G|---4--4--4-----6--6-----4--4--4-----2--2----|
D|---5--5--5-----7--7-----5--5--5-----4--4----|   x 4
A|---5--5--5-----7--7-----5--5--5-----4--4----|
E|---3--3--3-----5--5-----3--3--3-----2--2----|

Sorry but i dont know the tabs to the part that goes "World still spinning around..."


The Fire Theft official website:
http://www.thefiretheft.com
Tap to rate this tab
# A B C D E F G H I J K L M N O P Q R S T U V W X Y Z