Song name
# A B C D E F G H I J K L M N O P Q R S T U V W X Y Z

Corey Smith - First Dance tab

-------------------------------------------------------------------------------
			     First Dance - Corey Smith
-------------------------------------------------------------------------------
Tabbed by: Jayrod

Tuning: standard

-the x's are where he taps the strings (palm muting) on beats 1 & 3

Intro
e|-----------------------------------|
B|-----------------------------------|
G|--x--0----------x------------------|
D|--x--0-----0h2--x------0h2----x2---|
A|--x-----3---3---x--3---3-----------|
E|-----------------------------------|

e|----------------------------------|
B|----------------------------------|
G|--x--------0h2-x------0h2---------|
D|--x--3------3--x------3------x2---|
A|--x--3------3--x------3-----------|
E|--------1---1--x--1---1-----------|

e|----------------------------------------------------------------------------------------0---|
B|----------------------------------------------------------------------------------------1---|
G|-x--0----------x----------x-------------x---------x---------------x-----------x--0------0---|
D|-x--0-----0h2--x-----0h2--x--------0h2--x------0--x----------0h2--x------0h2--x--0----------|
A|-x-----3---3---x--3---3---x--0------x---x------2--x--0h2h3----3---x--3---3----x-----3-------|
E|--------------------------------3---3---x--3---3--x-----------------------------------------|


Verses
e|-----------------------------------|
B|-----------------------------------|
G|--x--0----------x------------------|
D|--x--0-----0h2--x------0h2----x2---|
A|--x-----3---3---x--3---3-----------|
E|-----------------------------------|

e|-----------------------------------|
B|-----------------------------------|
G|--x--------0h2-x------0h2----------|
D|--x--3------3--x------3-------x2---|
A|--x--3------3--x------3------------|
E|--------1---1--x--1---1------------|

e|-----------------------------------|
B|-----------------------------------|
G|--x--0----------x------------------|
D|--x--0-----0h2--x------0h2----x2---|
A|--x-----3---3---x--3---3-----------|
E|-----------------------------------|

e|------------------------------------------------------------|
B|------------------------------------------------------------|
G|--x-------------x---------x-------------x-------------------|
D|--x--------0h2--x------0--x--------0h2--x------0-----play---|
A|--x--0------x---x------2--x--0------x---x------2----intro---|
E|--------3---3---x--3---3--x-----3---3---x--3---3------------|
repeat intro


Chorus
e|-------------------------------|-----------------------------------|
B|-------------------------------|-----------------------------------|
G|--x--------0h2-x------0h2------|--x--0----------x------------------|
D|--x--3------3--x------3-----x2-|--x--0-----0h2--x------0h2----x2---|
A|--x--3------3--x------3--------|--x-----3---3---x--3---3-----------|
E|--------1---1--x--1---1--------|-----------------------------------|

e|----------------------------|-----------------------------------|
B|----------------------------|-----------------------------------|
G|--x-----0h2-x------0h2------|--x--0----------x------------------|
D|--x------3--x------3-----x2-|--x--0-----0h2--x------0h2----x2---|
A|--x------3--x------3--------|--x-----3---3---x--3---3-----------|
E|-----1---1--x--1---1--------|-----------------------------------|

e|----------------------------------|
B|----------------------------------|
G|--x--------0h2-x------0h2---------|
D|--x--3------3--x------3------x2---|
A|--x--3------3--x------3-----------|
E|--------1---1--x--1---1-----------|

e|--------------------------------------------------------------0--------1----------------|
B|-------------------------------------------1--------1--x--1---1--x--1--1--x-------------|
G|--x----------x----------x------------x-----0--x-----0--x--0------x--0-----x-----0---x---|
D|--x-----0h2--x-----0h2--x--------0h2-x-----2--x--3-----x---------x--------x-----0---x---|
A|--x--3---3---x--2--2----x--2--0---0--x-----3--x--------x---------x--------x---------x---|
E|----------------------------------------3--3--x------------------------------3----------|

e|--------------------------------------0-----|
B|--------------------------------------1-----|
G|----------------x-----------x--0------0-----|
D|-----------0h2--x------0h2--x--0------------|
A|---0h2h3----3---x--3---3----x-----3---------|
E|--------------------------------------------|


Bridge
e|-----------------------0---------1-----1---------------------3-----------------------|
B|-------------1-----1---1---------1-----1-----------3-----3---3-----------------------|
G|---x---------2--x--2------x------2--x--2--x--------0--x--0---0--x---------0--x--0----|
D|---x---------2--x--2------x--0---0--x--0--x--------0--x--0------x---------2--x--2----|
A|---x--2--0---0--x--0------x---------x-----x--------2--x--2------x--0h2h3--3--x--3----|
E|---------------------------------------------0--3--3-----3---------------------------|


e|-----------------------0---------1-----1---------------------3-----------3---3----|
B|-------------1-----1---1---------1-----1-----------3-----3---3-----------3---3----|
G|---x---------2--x--2------x------2--x--2--x--------0--x--0---0--x--------0---0----|
D|---x---------2--x--2------x--0---0--x--0--x--------0--x--0------x--------0---0----|
A|---x--2--0---0--x--0------x---------x-----x--------2--x--2------x--------2---2----|
E|---------------------------------------------0--3--3-----3---------0--3--3---3----|


Ending
end of last chorus
e|---------------------------------------------------------------0-----1--------------|
B|--------------------------------------------1--------1--x--1---1--x--1--x-----------|
G|---------------x----------x------------x----0--x-----0--x--0------x--2--x--0---x----|
D|----------0h2--x-----0h2--x--------0h2-x----2--x--3-----x---------x--0--x--0---x----|
A|---0h2h3---3---x--2--2----x--2--0---0--x----3--x--------x---------x-----x------x----|
E|-----------------------------------------3--3--x---------------------------3--------|

e|--------------------------------------|
B|--------------------------------------|
G|--------------x----------x------0-----|
D|----------0h2-x-----0h2--x--0--0h2----|
A|---0h2h3---3--x--3--3----x------3-----|
E|--------------------------------------|



| h  hammer-on
| x  Mute note
===============================================================================
Tap to rate this tab
 
# A B C D E F G H I J K L M N O P Q R S T U V W X Y Z