Song name
# A B C D E F G H I J K L M N O P Q R S T U V W X Y Z

Corey Smith - As Angels Cry tab

-------------------------------------------------------------------------------
			AS ANGELS CRY - Corey Smith
-------------------------------------------------------------------------------
Tabbed by: Jayrod

Tuning: standard

Intro
e|-----------------------------------------|
B|---3------------------3------------------|
G|------2-----2---------2-----repeat 3x----|
D|---------0--------0---0------------------|
A|-----------------------------------------|
E|---------------3-------------------------|

Verses 
e|-----------------------------------------------------------|
B|-----------------------------------------------------------|
G|------2--------2----------------2----------2---------------|
D|------------------0-----0---------------------0-----0------|
A|---2-----0--0--------0-------------0h2--2--------2---------|
E|---------------------------2h3-----------------------------|

Prechorus ("by the chain...")
e|------------------------------------------|
B|----------3--------2-----2---------2------|
G|----------2--------2-----2---------2------|
D|------0---0------------0h2-------0h2------|
A|---------------0-------------0-----0------|
E|---3------3-------------------------------|

Chorus (hammer at will)
e|---2--------------------|
B|---3----2----3----3-----|
G|---2----2----4----2-----|
D|---0----2----4----0-----|
A|--------0----2----------|
E|------------------3-----|
     D    A    Bm   G


| h  hammer-on
===============================================================================
Tap to rate this tab
 
# A B C D E F G H I J K L M N O P Q R S T U V W X Y Z