Song name
# A B C D E F G H I J K L M N O P Q R S T U V W X Y Z

Corey Smith - When The Sun Goes Down In Georgia tab

-------------------------------------------------------------------------------
WHEN THE SUN GOES DOWN IN GEORGIA - Corey Smith
-------------------------------------------------------------------------------
Tabbed by: Jayrod

Tuning: standard

Intro
e|---------0h2------0h2---0h2---------------------|
B|----------3--------3-----3---------3------------|
G|------2---2--------2-----2---------2------------|
D|---0-------------------------------0------------| 
A|---------------4---------2-------------0h2------|
E|-------------------------------3----------------| repeat, end on 3rd fret E

Verse
e|------0h2-----------------------------0---------0-----|
B|-------3------------3--------3--------2----2h3--------|
G|-------2------------4--------2--------2---------------|
D|---0------------4---4--------0--------2---------------|
A|-------------2------2-------------0---0---------------|
E|-------------------------3---3------------------------|

e|------0h2---2h3p2p0h2--------------------------0-----|
B|-------3---------------------3--------3--------2-----|
G|-------2---------------------2--------2--------2-----|
D|---0----------------------------------0--------2-----|
A|-------------------------2-----------------0---0-----|
E|----------------------------------3---3--------------|

Prechous
e|-------3------3p2---0---0h2---3p2-------3--------0-----|
B|-------3-------3----3----3-----3--------3--------2-----|
G|-------0-------2----2----2-----2--------2--------2-----|
D|-----------0---0----0----0-----0-----------------2-----|
A|------------------------------------2---2----0---0-----|
E|---3---3-----------------------------------------------|

Chorus
e|------0h2------0h2------0h2------0h2------------------|
B|-------3--------3--------3--------3----2--------------|
G|-------2--------2--------2--------2----2--------------|
D|---0--------------------------0--------2-----repeat---|
A|------------4--------2-----------------0--------------|
E|------------------------------------------------------|

e|-------3--------3--------3-------2-------3-------------------------|
B|-------3--------3--------3-------3-------3-------------------------|
G|-------0--------2--------0-------2-------x---2---------------------|
D|---------------------------------0-------2---2-----play intro------|
A|------------2---2------------------------2---0---------------------|
E|---3---3-------------3---3---2---2---0---0-------------------------|

Ending
e|------0h2p0--------0--------------0h2h3-----------3-----|
B|-------------3--------2------------------3--------3-----|
G|----------------------------0---------------------0-----|
D|---0---------------------0---------------------0--------|
A|----------------4--------------2------------------------|
E|--------------------------------------------3-----------|

e|------0h2p0--------0-----0h2h3-----------------------------------0h2-----|
B|-------------3------------------3-----------3-----------2h3------3-------|
G|-----------------------------------------0-----------2----------2--------|
D|---0----------------------------------0-----------2------------0---------|
A|----------------4-----2------------------------0-------------------------|
E|------------------------------------3------------------------------------|


| h  hammer-on
| p  pull-off
| x  Mute note
===============================================================================
Tap to rate this tab
# A B C D E F G H I J K L M N O P Q R S T U V W X Y Z