Song name
# A B C D E F G H I J K L M N O P Q R S T U V W X Y Z

Corey Smith - Im Drinkin Again tab

Drop-D tuning
Capo-4th fret

INTRO

e-----5-------4-------0--0h2-----|
B--5------5-------0h2------------|
G-----------------2--------------|
D--------------------------------|
A--4------2-------0--------------|
D--------------------------------|

VERSE

e--------0----------------0----------------0--------------------|
B---------------------------------------------------3--3--------|
G---2--2-----------2----2-----------2----2----------2--2--------|
D---------------------------------------------------------------|
A-0---0-----0h2-------0------0h2------0-------------------------|
D---------------4----------------5--------------0---------------|


It's not fully complete but it should get you through most of the song.
there are some variations in the chorus but im not going in to that. if you have any 
leave me a comment.
Tap to rate this tab
# A B C D E F G H I J K L M N O P Q R S T U V W X Y Z