Song name
# A B C D E F G H I J K L M N O P Q R S T U V W X Y Z

Corey Smith - If I Could Do It Again tab

-------------------------------------------------------------------------------
			IF I COULD DO IT AGAIN - Corey Smith
-------------------------------------------------------------------------------
Tabbed by: Jayrod

Tuning: standard

VERSES
e|--------------------------------------------|
B|--------------------------------------------|
G|-----4-----3h4-----4-----4------------------|
D|----(4)---(4)-----(4)---(2)-----------------|
A|-----2-----x-------x----(2)---------2-------|
E|-----------2-------4-----0-----2h4----------|


PRECHORUS
e|----------0---------0------|
B|----------0---------0------|
G|-----3----1----3----1------|
D|-----4----2----4----2------|
A|-----4----2----4----2------|
E|-----2----0----2----0------|


CHORUS
e|--------------0------|
B|----4---------0------|
G|----4----3----1------|
D|----4----4----2------|
A|----2----4----2------|
E|---------2----0------|


"I'd break all the rules..."
e|-----------------------------0------|
B|-----------------------------0------|
G|--------------6--------------1------|
D|----6----8----9----6----8----2------|
A|----6----8----9----6----8----2------|
E|----4----6----7----4----6----0------|


BRIDGE (my best idea for it)
e|-------------------------------------------|
B|-----------------7-----4----------7--------|
G|----8------------8-----4----------8--------|
D|----9------------------x-------------------|
A|----x------------------x-------------------|
E|----7--------6---------4-----6-------------|
Play the first chord on one down and one up stroke. Then play the 6th fret E string on 
down stroke followed by the 7,8 on the upstroke. Repeat at the 4xx44 chord.


For the outro play the Verse line and end on the x2444xx chord

| h  hammer-on
| x  Mute note
===============================================================================
Tap to rate this tab
# A B C D E F G H I J K L M N O P Q R S T U V W X Y Z