Song name
# A B C D E F G H I J K L M N O P Q R S T U V W X Y Z

Corey Smith - Every Dawg tab

-------------------------------------------------------------------------------
			     EVERY DAWG - Corey Smith
-------------------------------------------------------------------------------
Tabbed by: Jayrod

Here's the one you've all been waiting for. Enjoy!

Tuning: standard

INTRO
e|--------0------------------------0----0h2---3p2p0----0h2-------|
B|----3-------3----------------3--------3--------------3---------|
G|----2-----------0--------2------------2--------------2---------|
D|----0---------------4-----------------0--------------0---------|
A|----0---------------------------------0--------------0---------|
E|---------------------------------------------------------------|

e|--------------------------------3-------------3p2--0-------0h2------|
B|------------2h3---------------------------3------------3---3--------|
G|------------------------0-----------------2----------------2--------|
D|--------2---------0h2---------------------0----------------0--------|
A|----0-------------------------------0h2---0----------------0--------|
E|----------------------------3---------------------------------------|


VERSE
e|------------0-------------------------|
B|----------------3-------3-------------|
G|--------2-----------2-----------------|
D|----0-------------------------x3------|
A|--------------------------------------|
E|--------------------------------------|

e|---------------------------------3-----------------3----------|
B|-------------------------------------3-----------------3------|
G|------------2------------0------------------------------------|
D|----0---0------------0-------------------0h2------------------|
A|--------------------------------------------------------------|
E|-----------------2-----------3-----------------3--------------|

e|--------------------------------3-------------|
B|------------2h3-------------------------------|
G|------------------------0---------------------|
D|--------2---------0h2-------------------------|
A|----0-------------------------------0h2-------|
E|----------------------------3-----------------|

"Thought this year..."
e|------------0-------------------------|
B|----------------3-------3-------------|
G|--------2-----------2-----------------|
D|----0-------------------------x5------|
A|--------------------------------------|
E|--------------------------------------|

"Man I wish..."
e|---------------------3--------------------|
B|------------3--------3----3---------2-----|
G|--------2------------0----2---------2-----|
D|----0----------------0----0----2----2-----|
A|---------------------2----x----2----0-----|
E|-----------------2---3----2----0----------|


CHORUS
e|----2---------3--------------|
B|----3---------3----2---------|
G|----2---------0----2---------|
D|----0---------0----2----x2---|
A|--------------2----0---------|
E|----------2---3--------------|
play D chord like at the end of the Intro before going back to the Verse


BRIDGE
e|----3---------2-------3----3---------2-----------|------3----------|
B|----3----2----3-------3----3----2----3-----------|------3----2-----|
G|----0----2----2-------0----0----2----2---repeat--|------0----2-----|
D|----0----2----0-------0----0----2----0----once---|------0----2-----|
A|----2----0------------2----2----0----------------|------2----0-----|
E|----3-------------2---3----3---------------------|--2---3----------|

e|------------0---------------------|---0h2----2h3p2--0---------|
B|----------------3-------3---------|---3-----------------3-----|
G|--------2-----------2-------------|---2-----------------------|
D|----0-------------------------x3--|---0-----------------------|
A|----------------------------------|---------------------------|
E|----------------------------------|---------------------------|


ENDING "Glory, glory" x2
e|----2--------3----2-----|
B|----3--------3----3-----|
G|----2--------0----2-----|
D|----0--------0----0-----|
A|-------------2----------|
E|---------2---3----------|

"Glory, glory..."
e|----2----2------------------------------------------------------0h2----|
B|----3----3----3----3---------2~---------------------------------3------|
G|----2----2----4----2----4----2~---------------------------------2------|
D|----0----x----4----0----2----2~----------0---0---0h2p0------0---0------|
A|---------4----2----x----2----0~----0h2-------------------2-------------|
E|-------------------2----0----------------------------------------------|


| h  hammer-on
| p  pull-off
| ~  vibrato
| x  Mute note
===============================================================================
Tap to rate this tab
# A B C D E F G H I J K L M N O P Q R S T U V W X Y Z