Song name
# A B C D E F G H I J K L M N O P Q R S T U V W X Y Z

Corey Smith - Stand Our Ground tab

-------------------------------------------------------------------------------
			     STAND OUR GROUND - Corey Smith
-------------------------------------------------------------------------------
Tabbed by: Jayrod

Tuning: standard

INTRO/VERSES
e|-----------------------------------------------------------------------------|
B|--------2h4-------------------------------------------------------------2----|
G|-------------4---------------4-------------------4-----------------3h4-------|
D|-------------------------4-------4-----------4-------4-----------------------|
A|----2------------2-------------------------------------------2h4-------------|
E|----------------------0--------------0---2---------------2-------------------|

PRECHORUS
e|---------0--------------|
B|---------0--------------|
G|----4----1----4----3----|
D|----6----2----6----4----|
A|----6----2----6----4----|
E|----4----0----4----2----|


CHORUS
e|---------0---------|
B|----4----0---------|
G|----4----1----3----|
D|----4----2----4----|
A|----2----2----4----|
E|---------0----2----|


"I hope this war's worth dyin' for" post-chorus
e|---------------------------------------------|
B|---------------------------------------------|
G|-----4----1------4----1------4----1----3-----|
D|-----6----2------6----2------6----2----4-----|
A|-----6----2------6----2------6----2----4-----|
E|---2/4----0----2/4----0----2/4----0----2-----|


| /  slide up
| h  hammer-on
===============================================================================
Tap to rate this tab
# A B C D E F G H I J K L M N O P Q R S T U V W X Y Z