Song name
# A B C D E F G H I J K L M N O P Q R S T U V W X Y Z

Corinne Bailey Rae - Id Do It All Again tab

"I'd Do It All Again," Corinne Bailey Rae
Tabbed (Ear-Transcribed) by James Nikko
Standard Tuning, No Capo

Note: These tabs are what make up the majority of the song. Some tablature may be 
I separated each "set," which will help you follow along with the lyrics.


E|------------------|
B|----77------77----|
G|---7--7----7--7---|
D|--7----7--7----7--|
A|------------------|
e|-7------77------7-|

Oh...


E|------------------|
B|----77------77----|
G|---7--7----7--7---|
D|--6----6--6----6--|
A|-7------77------7-|
e|------------------|

... you're searching/thirsting for...


E|------------------|
B|----55------55----|
G|---6--6----6--6---|
D|--6----6--6----6--|
A|------------------|
e|-5------55------5-|

... something I know...


E|------------------|
B|----22------22----|
G|---0--0----0--0---|
D|--2----2--2----2--|
A|------------------|
e|-2------22------2-|

... won't make you happy.


Tabs are to be strummed from here on out. Follow along with the song to figure out when 
pick/pluck the tabs.
Tap to rate this tab
# A B C D E F G H I J K L M N O P Q R S T U V W X Y Z