Song name
# A B C D E F G H I J K L M N O P Q R S T U V W X Y Z

Corinne Bailey Rae - Till It Happens To You tab

--------------------------------------------------
   Corinne Bailey Rae - Till It Happens To You
--------------------------------------------------

Standard Tuning: E-A-D-G-B-E

Chords used: Note some similar in voicing but by different name.

 C#m7     G#m        G#m7    Gm7     F#m7  
E|(4)|  E|-4-|     E|(4)|  E|(3)|   E|(2)| 
B|-5-|  B|-4-|     B|-4-|  B|-3-|   B|-2-| 
G|-4-|  G|-4-|     G|-4-|  G|-3-|   G|-2-| 
D|-6-|  D|-6-|     D|-4-|  D|-3-|   D|-2-| 
A|-4-|  A|-6-|     A|---|  A|---|   A|---| 
E|---|  E|-4-|     E|-4-|  E|-3-|   E|-2-| 

   B     CDim       EMaj7    AMaj7(F#m7)   FMaj7
e|(2)|  e|(2)|     e|-4-|    e|-------|   e|---|   
B|-4-|  B|-4-|     B|-4-|    B|-3-(2)-|   B|-1-|   
G|-4-|  G|-5-|     G|-4-|    G|-4-(2)-|   G|-2-|   
D|-4-|  D|-4-|     D|-6-|    D|-4-(2)-|   D|-2-|   
A|-2-|  A|-3-|     A|-7-|    A|-------|   A|---|   
E|---|  E|---|     E|(0)|    E|-5-(2)-|   E|-1-|  

  C#m     G#7    Bsus4    F#7        A      B7
E|(4)|  E|(2)|  E|(2)|  E|(2)|    E|(0)|  E|-x-|   
B|-5-|  B|-4-|  B|-5-|  B|-2-|    B|-2-|  B|-2-|   
G|-6-|  G|-5-|  G|-4-|  G|-3-|    G|-2-|  G|-2-|   
D|-6-|  D|-4-|  D|-4-|  D|-2-|    D|-2-|  D|-2-|   
A|-4-|  A|-3-|  A|-2-|  A|-1-|    A|-0-|  A|(0)|   
E|---|  E|(4)|  E|---|  E|(2)|    E|---|  E|---|  


General Tab Covering All The Changes:

   C#m7                       G#m                          G#m7 Gm7
    1   2   3   4   5   6   |  1   2   3   4   5   6      ...5   6 
e|--------------------------|--------------4----------||   --4---3--|-
B|--------------5h7-5---5---|--------------4----------||   --4---3--|-
G|----------4---4h6-4---4---|-------------------------||   --4---3--|-
D|------6---------------6---|----------6--------------||   --4---3--|-
A|--4-----------------------|------6------------------||   --x---x--|-
E|--------------------------|--4--------------(4)-(7)-||   --4---3--|-


  F#m7                         B                                    B          CDim
    1   2   3   4   5   6   |  1   2   3      ...4   5   6       ...1   2   3   4   5   6 
e|--2-----------------------|-------------||   -------------||   --------------------------|-
B|--2-----------------------|--4----------||   -------------||   --(4)---------(4)---------|-
G|--2-----------------------|--4----------||   ------2------||   --(4)------4--(5)------4--|-
D|--2---------------2-------|--4----------||   ----------2--||   --(4)--4------(4)--4------|-
A|--x----------/4-------4---|--2----------||   -/4----------||   ---2-----------3----------|-
E|--2----------sl-----------|-------------||   -------------||   --------------------------|-


   C#m                        CDim (G#7)
    1   2   3   4   5   6   |  1   2   3   4   5   6   
e|--------------------------|-------------(2)---------|
B|--------------5-----------|--------------4----------|
G|----------6-------6-------|----------5--------------|
D|------6---------------6---|------4------------------|
A|--4------------------(4)--|--3----------------------|
E|----------------/(4)------|-------------------------|


   Bsus4                      F#7
    1   2   3   4   5   6   |  1   2   3   4   5   6   
e|--------------2h4-2--(2)--|--------------2----------| 
B|--------------4-------5---|--------------2----------| 
G|----------4---------------|----------3--------------| 
D|------4-------------------|------2------------------| 
A|--2-----------------------|--1----------------------| 
E|--------------------------|-------------------------| 


    A           B7
    1   2   3   4   5   6  |   1...     ...4   5   6  
e|-------------------------| -----|- 
B|--2-----------2/4-----4--| --2--|-
G|--2-----------2/4-----4--| --2--|-
D|--2-----------2/4-----4--| --2--|-
A|--0----------(0)-----(0)-| -(0)-|-
E|-------------------------| -----|-


    EMaj7               AMaj7               G#m7       F#m7               FMaj7
    1  ...4 5 6  ||     1  ...4 5 6  ||  ...4  5  6  |  1... 4 5 6         1...
e|---------------||   ---------------||   -(4)-------|-(2)----------|-   -(0)--||
B|--4------------||   --6-(2)--------||   --4--4-----|--2-----------|-   --1---||
G|--4------------||   --6-(2)--------||   --4--4-----|--2-----------|-   --2---||
D|--6------------||   --6-(2)--------||   --4--4-----|--2-----------|-   --2---||
A|--7------------||   ---------------||   -----------|--------------|-   ------||
E|-(0)-----------||   --5-(2)--------||   --4--4-----|--2-----------|-   --1---||


   F#m7 Gm7  G#m7       G#m7 Gm7  F#m7
e|---------------||-   ---------------|| 
B|--2----3----4--||-   --4----3----2--|| 
G|--2----3----4--||-   --4----3----2--|| 
D|--2----3----4--||-   --4----3----2--|| 
A|---------------||-   ---------------|| 
E|--2----3----4--||-   --4----3----2--|| 


Lyrics w/Chords

C#m7        G#m
I know what I said
    C#m7        G#m      G#m7, Gm7
Was heat of the moment
F#m7                           B                        G#m7, Gm7
But theres a little truth in between the words we've spoken
F#m                       B                      G#m7, Gm7
Its a little late now to fix the heart thats broken
F#m                           B CDim
Please don't ask me where I'm going
C#m                CDim (G#7)
Cause I don't know
  Bsus4               F7              A    B7   A
No I don't know                    anymore

Emaj7     
It used to feel like heaven
                  Amaj7 (F#m7)
Used to feel like may
                     Emaj7
I used to hear those violins playing heart strings like a symphony
            Amaj7 (F#m7)
Now they've gone away    
G#m7   F#m7
Nobody wants to face the truth
               Fmaj
But you wont believe what love can do

                   C#m7          G#m
Till it happens to you
Till it happens to you

C#m7        G#m
Went to the old flat
C#m7                                 G#m     G#m7, Gm7
Guess I was trying to turn the clock back
F#m                                               B           G#m7, Gm7
How come that nothing feels the same now when I'm with you
F#m                                                   B             G#m7, Gm7
We used to stay up all night in the kitchen, When our love was new

     F#m                  B             CDim
Oooh love I'm a fool to believe in you

      C#m              CDim (G#7)
Cause I don't know
   Bsus4            F#7              A     B7   A
No I don't know                   Anymore

                     Emaj7     
It used to feel like heaven
                     Amaj7 (F#m7)
It used to feel like may
                     Emaj7     
I used to hear those violins playing heart strings like a symphony
            Amaj7 (F#m7)
Now they've gone away
G#m7   F#m7
Nobody wants to know the truth
  Gm7              G#m7
Until their hearts broken
          Gm7             F#m
Don't you dare tell them what you think to do
Gm7           G#m7
Till they get over
          Gm7            F#7m      
You can only learn these things from experience
Gm7          G#m7        Gm7
When you get older

         F#m7 
(pause)I just wish that someone would have told me

C#m7                    G#m
Till it happens to you
Till it happens to you
Till it happens to you
Tap to rate this tab
# A B C D E F G H I J K L M N O P Q R S T U V W X Y Z