Song name
# A B C D E F G H I J K L M N O P Q R S T U V W X Y Z

Corinthians - Hino Do Corinthians tab

e|-13-12-----------------------12-10---------------------------------|
B|-------13-10-10--10-10-12-13-------13-12-12------------------------|
G|-------------------------------------------------------------------|
D|-------------------------------------------------------------------|
A|-------------------------------------------------------------------|
E|-------------------------------------------------------------------|

e|-10-----------------------10-------12-12-12-10-9-------------------|
B|----12-10-9-9--9-9-10-12-----13-12---------------------------------|
G|-------------------------------------------------------------------|
D|-------------------------------------------------------------------|
A|-------------------------------------------------------------------|
E|-------------------------------------------------------------------|

e|-10--10-10-10-12-13-17-13----------15--12--------------------------|
B|--------------------------15-13-13--------13-12-12-12-12-13-15-----|
G|-------------------------------------------------------------------|
D|-------------------------------------------------------------------|
A|-------------------------------------------------------------------|
E|-------------------------------------------------------------------|

e|-12-----------------------------------13-13-12-----------12--------|
B|----15-13-10~~--10-10-12-12-13-13-15-15----------15-13-15----------|
G|-------------------------------------------------------------------|
D|-------------------------------------------------------------------|
A|-------------------------------------------------------------------|
E|-------------------------------------------------------------------|

e|-------------------------13-13-12----------12---12-12-10-9-10-10---|
B|-10-10-12-12-13-13-15-15----------15-13-15-------------------------|
G|-------------------------------------------------------------------|
D|-------------------------------------------------------------------|
A|-------------------------------------------------------------------|
E|-------------------------------------------------------------------|

e|-8-7-8-8-17-13----------------------12-----------------------------|
B|---------------15-13-13-12-12-13-15----15-13-----------------------|
G|----------------------------------------------14--14~~-------------|
D|-------------------------------------------------------------------|
A|-------------------------------------------------------------------|
E|-------------------------------------------------------------------|

Tá ai a tablatura pra toda a galera do timão!

Abraços
Tap to rate this tab
# A B C D E F G H I J K L M N O P Q R S T U V W X Y Z