Song name
# A B C D E F G H I J K L M N O P Q R S T U V W X Y Z

Corinthians - Hino Do Corinthians tab

Hinos de Futebol - Hino Oficial do Sport Club Corinthians Paulista

Tom: G
                Intro:

1ª parte:

E|----------------------0----------------------------|
B|--0---------------0-1---1--------------------------|
G|----2-1-2-2---2-2---------2-0----------------------|
D|---------------------------------------------------|
A|---------------------------------------------------|
E|---------------------------------------------------|


2ª parte:

E|--0-------------------0---2-0----------------------|
B|----0---------------0---4--------------------------|
G|------0---------0-2--------------------------------|
D|--------4-4---4------------------------------------|
A|---------------------------------------------------|
E|---------------------------------------------------|


Primeira parte:
1ª parte:
"Salve o Corinthians, o campeão dos campeões..."

E|---------------------------------------------------|
B|--1-0-----------------0----------------------------|
G|------0-------------0---2-0------------------------|
D|--------2-2---2-2-4---------4----------------------|
A|---------------------------------------------------|
E|---------------------------------------------------|


2ª parte:
"Eternamente, dentro dos nossos corações..."

E|---------------------------------------------------|
B|----------------------------0----------------------|
G|--2-------------------2-0--------------------------|
D|----4-2-1-1---1-1-2-4-----4------------------------|
A|---------------------------------------------------|
E|---------------------------------------------------|


3ª parte:
"Salve o Corinthians, de tradições e glórias mil..."

E|----------------------0----------------------------|
B|--0---------------0-1---1--------------------------|
G|----2-1-2-2---2-2---------2-0----------------------|
D|---------------------------------------------------|
A|---------------------------------------------------|
E|---------------------------------------------------|


4ª parte:
"Tu és o orgulho, dos esportistas do Brasil..."

E|--0------------------------------------------------|
B|----0-----------0-1-0------------------------------|
G|------0-------2-------2-0--------------------------|
D|--------4-4---------------4-2----------------------|
A|---------------------------------------------------|
E|---------------------------------------------------|



Segunda parte:
1ª parte:
"Teu passado é uma bandeira, teu presente uma lição..."

E|---------------------------------------------------|
B|-------------------------------0-------------------|
G|-----------0-2-------1-0---------------------------|
D|-----1-2-4-----4---2-----2-0-4---------------------|
A|-2-4-----------------------------------------------|
E|---------------------------------------------------|


2ª parte:
"Figuras entre os primeiros, do nosso esporte bretão..."

E|---------------------------------------------------|
B|--------------------------------0------------------|
G|------------0-2-------1-0--------------------------|
D|------1-2-4-----4---2-----2-0-4--------------------|
A|--2-4----------------------------------------------|
E|---------------------------------------------------|


3ª parte:
"Corinthians grande,sempre altaneiro..."

E|---------------------------------------------------|
B|--0------------------------------------------------|
G|----2-1-2-2---2-0---0-0----------------------------|
D|------------------4--------------------------------|
A|---------------------------------------------------|
E|---------------------------------------------------|


4ª parte:
"És do Brasil o clube mais brasileiro."

E|--0------------------------------------------------|
B|----0---------------0------------------------------|
G|------0---------0-2---2-0--------------------------|
D|--------4-4---4-----------4-2----------------------|
A|---------------------------------------------------|
E|---------------------------------------------------|
Tap to rate this tab
# A B C D E F G H I J K L M N O P Q R S T U V W X Y Z