Song name
# A B C D E F G H I J K L M N O P Q R S T U V W X Y Z

Corneille - Petite Soeur tab

Highlighted       Show chord diagrams
-------------------------------------------------------------------------
PETITE SOEUR - Corneille
-------------------------------------------------------------------------
Tabbed by: Kengus

Here's another Corneille song. As I hear, there are three different Fmaj
chords used in the song, so I put down them all. The Dm7-Em7* is a slide,
so just slide from Dm7 to Em7*, simple. The Aadd2* and Aadd2** chords are
just to add flavour, but you can hear them quite clearly. Have fun!

Standard tuning

INTRO (repeat this x2)
   Fmaj7*                       Em7*        Aadd2        Fmaj7*
e|------------------------------7-----7-10--0-------5-0------------------|
B|-10------10-------------10--------8-------------0------10------10------|
G|-------9----9---------9----9----7-------------6--------------9----9----|
D|----10--------10---10-----------------------7-------------10--------10-|
A|--8--------------8------------7-----------0-------------8--------------|
E|-----------------------------------------------------------------------|
                Em7*        Aadd2
e|--------------7-----7-10--0-------5h7-5h7--|  the second time's ending
B|--------10--------8-------------0----------|  is a bit different, pro-
G|------9----9----7-------------6------------|  bably just 5, not 5h7 5h7
D|---10-----------------------7--------------|
A|-8------------7-----------0----------------|
E|-------------------------------------------|

VERSE1                                                             EADGBe
Fmaj7**                   D#m7-Em7*                      Fmaj7** = x87555
     Je sais d'ou tu viens,                                 D#m7 = x68676
Aadd2                                                       Em7* = x79787
  je sais ton chemin                                       Aadd2 = x07600
Fmaj7**                    D#m7-Em7*  Aadd2                Fmaj7 = 133210
     Et dieu sais qu'on es fier                              Em7 = 022030
Fmaj7                              Em7
     Si c'est demain que tu crains, 
  Aadd2
voila ma main tiens la bien
Fmaj7                 Em7  Aadd2
     Et pense a toi hier

(Et surtout)

CHORUS
           Fmaj**                                   D#m7-Em7*  Aadd2
Prends ton temps p'tite soeur, tu saura ce qu'il te faut
           Fmaj7**                              D#m7-Em7*  Gm7  C
Prends ton temps p'tite soeur, tu auras cque tu vaut
           Fmaj7**                              D#m7-Em7*  Aadd2
Prends ton temps p'tite soeur, tu auras grand et beau
           Fmaj7**                        D#m7-Em7*       Aadd2
Prends ton temps p'tite soeur, p'tite soeur,    p'tite soeur... 

(prends ton temps)                                 Gm7 = x-10-12-10-11-10
                                                     C = 8-10-10-9-8-8

VERSE2
Fmaj7                          Em7   
     Sache l'amour que t'atend,     
  Aadd2 (Aadd2* Aadd2**)                                Aadd2* = x07605
et celui qui t'attend                                  Aadd2** = x07607
Fmaj7                                      
   Rire il suffira, mais tu peux me croire, 
Em7         Aadd2 (Aadd2* Aadd2**)
il vaut ca
Fmaj7                              Em7
   Ca prend des larmes et du temps, 
Aadd2       (Aadd2* Aadd2**)
des mirages, des amants
Fmaj7                      Em7       Aadd2
     Avant que tu te rende jusqu'a la...

CHORUS (same chords as before)
Prends ton temps p'tite soeur, tu saura ce qu'il te faut
Prends ton temps p'tite soeur, tu auras cque tu vaut
Prends ton temps p'tite soeur, tu auras grand et beau
Prends ton temps p'tite soeur, p'tite soeur, p'tite soeur

BRIDGE
F#m    A             Fmaj7         Em7
         (Prends ton temps, p'tite soeur)
            F#m     A    Fmaj7   Em7
(Prends ton temps)

CHORUS (same chords as before)
Prends ton temps p'tite soeur, tu saura ce qu'il te faut
Prends ton temps p'tite soeur, tu auras cque tu vaut
Prends ton temps p'tite soeur, tu auras grand et beau
Prends ton temps p'tite soeur, p'tite soeur, p'tite soeur

OUTRO (play chorus x5 + intro, then the song fades out) 

=====================================================================
Comment, rate, appreciate!
Tap to rate this tab
# A B C D E F G H I J K L M N O P Q R S T U V W X Y Z