Song name
# A B C D E F G H I J K L M N O P Q R S T U V W X Y Z

Corneille - Quest-ce Que Tu Te Fais tab

Highlighted       Show chord diagrams
-------------------------------------------------------------------------
QU'EST-CE QUE TU TE FAIS? - Corneille
-------------------------------------------------------------------------
Tabbed by: Kengus

Standard tuning

VERSE (repeat this x2)
   C     Csus4    C     Csus4  Fmaj7* Fsus2 Fmaj7* Fsus2  D7sus2 Dm7
e|---0-0-0h1-1------0-0-0h1-1----0-0-0h1-1----0-0-0h1-1-----0-0-0h1-1--|
B|---1-1-1---1------1-1-1---1----1-1-1---1----1-1-1---1-----1-1-1---1--|
G|---0-0-0---0------0-0-0---0----0-0-0---0----0-0-0---0-----2-2-2---2--|
D|--------------------------------------------------------0------------|
A|-3--------------3----------------------------------------------------|
E|--------------3--------------1------------1--------------------------|
 Fmaj7*  Fsus2  C     Csus4    C     Csus4
e|---0-0-0h1-1----0-0-0h1-1------0-0-0h1-1--|
B|---1-1-1---1----1-1-1---1------1-1-1---1--|
G|---0-0-0---0----0-0-0---0------0-0-0---0--|
D|------------------------------------------|
A|--------------3--------------3------------|
E|-1-------------------------3--------------|

VERSE1
             C  Csus4         C  Csus4
Il t'aime la nuit et moi le jour
           Fmaj7*            Fsus2             Fmaj7*   Fsus2
Il pense à d'autre quand il sourit et te parles d'amour
      D7sus2  Dm7      Fmaj7*  Fsus2
Ooohhh oooh oh oh  ooh oooh
                    C    Csus4   C   Csus4
Qu'est-ce que tu te fait
         C  Csus4             C    Csus4
Il a les mots pour te faire rêver
       Fmaj7*                 Fsus2            Fmaj7*  Fsus2
Il a le tout il a ce qu'il faut pour te faire rester
      D7sus2  Dm7      Fmaj7*  Fsus2
Ooohhh oooh oh oh  ooh oooh
                    C    Csus4   C   Csus4
Qu'est-ce que tu te fait

CHORUS (continue same-style pattern as in verse, with Csus4, Fsus2 etc.)
C                 Fmaj7
Ooooh, oohohohoooooooh
      Dm7     Fmaj7
Ooooooooh, ooooooh
                    C
Qu'est-ce que tu te fait

VERSE2 (same chords and style as before)
Il te parle plus après l'amour
T'es juste une autre ni moins ni plus, c'était juste ton tour
Ooohhh oooh oh oh
Qu'est-ce que tu te fais
Quand rien ne va, il te revient
Tu le reprends et il repart, des qu'tout va bien
Ooohhh oooh oh oh
Qu'est-ce que tu te fait?

CHORUS (same as before)
Ooooh, oohohohoooooooh
Ooooooooh, ooooooh
Qu'est-ce que tu te fait

BRIDGE
              Em7              Am
Quand tu l’menace il te dit je t’aime
              Em7                                     Am
Tu sais qu’il dit à ces autres fille et tu reste quand même
             Dm7                    Em7      Am
Je sais très bien qu’sans lui, t'as pas mais sache
        G#                                   G
Que les larmes ça sèchent, et avec lui tu le masques

INTERLUDE
C  Fmaj7  Dm7  Fmaj7  C

CHORUS (same as before, repeat x3)
Ooooh, oohohohoooooooh
Ooooooooh, ooooooh
Qu'est-ce que tu te fait

========================================================================
Comment, rate, appreciate!
Tap to rate this tab
# A B C D E F G H I J K L M N O P Q R S T U V W X Y Z