Song name
# A B C D E F G H I J K L M N O P Q R S T U V W X Y Z

Cornelis Vreeswijk - Balladen Om Fredrik Kare Och Den Sta Frken Cecilia Lind tab

Help us improve GuitareTab! Take a short survey!
Taben är direkt "översatt" från noter....

-----------------------------------------------|
------3-3---3-3-1--1-3-0----------3-3-3--3-1-3-|
-2--2---------------------2---2----------0-----|
----0-------3------2--------------0------------|
--------------------------0--------------------|
-----------------------------------------------|

-0-0-1--0--0-0-5-5--3-3-0--0----------------0-0--0-----------------|
-----------------------------3-1--0----------------3-1--1-3-0------|
---------------------------------------2--2---------------------2--|
--------2----------------------------------------0------2----------|
-3-----------0------0------3-2-0----------0---0-----------------0--|
----------------------------------4--------------------------------|
Related for Balladen Om Fredrik Kare Och Den Sta Frken Cecilia Lind tab