Song name
# A B C D E F G H I J K L M N O P Q R S T U V W X Y Z

Cornershop - Brimful Of Asha tab

This is one of my first transcriptions, you can't really tell the strumming pattern by 
the tab you have to listen to the song but this pretty much it. I didnt tab the chorus 
but you can figure it out. The song only uses three chords.

By: Michael Campbell

E----5-5-5-5-5---------12-12-12--------10----10-10--------------------|
A----7-7-7-7-7---------14-14-14--------12----12-12--------------------|
D----7-7-7-7-7---------14-14-14--------12----12-12--------------------|
G----6-6-6-6-6---------13-13-13--------11----11-11--------------------|
B----5-5-5-5-5---------12-12-12--------10----10-10--------------------|
e----5-5-5-5-5---------12-12-12--------10----10-10--------------------|
There's dancing behind movie scenes
Behind the movie scenes - Sadi Rani
She's the one that keeps the dream alive,


E----5-5-5-5-5-5-5-5------10----10-10-----5---------------|
A----7-7-7-7-7-7-7-7------12----12-12-----7---------------|
D----7-7-7-7-7-7-7-7------12----12-12-----7---------------|
G----6-6-6-6-6-6-6-6------11----11-11-----6---------------|
B----5-5-5-5-5-5-5-5------10----10-10-----5---------------|
e----5-5-5-5-5-5-5-5------10----10-10-----5---------------|
From the morning, past the evening,
Till the end of the light



E----5-5-5-5-5---------12-12-12--------10----10-10----------------------|
A----7-7-7-7-7---------14-14-14--------12----12-12----------------------|
D----7-7-7-7-7---------14-14-14--------12----12-12----------------------|
G----6-6-6-6-6---------13-13-13--------11----11-11----------------------|
B----5-5-5-5-5---------12-12-12--------10----10-10----------------------|
e----5-5-5-5-5---------12-12-12--------10----10-10----------------------|
Brimful of Asha on the forty-five
Well, it's a brimful of Asha on the forty-five
Brimful of Asha on the forty-five
Well, it's a brimful of Asha on the forty-five
and singing illuminate the main streets and the cinema aisles
We don't care about no government warning
about that promotion of the simple life and the dams they are building

CHORUS
Everybody needs a bosom for a pillow,
everybody needs a bosom
Everybody needs a bosom for a pillow,
[ From: http://www.elyrics.net/read/c/cornershop-lyrics/brimful-of-asha-lyrics.html ]
everybody needs a bosom
Everybody needs a bosom for a pillow,
everybody needs a bosom

Mine's on the forty-five
Mohammed Ruffi (forty-five)
Lata Mangeshka (forty-five)
solid state radio (forty-five)
ferguson mono (forty-five)
Mon public (forty-five)
Jacques Dutronc and the Bolan Boogies
the Heavy Hitters and the chi chi music
All Indian radio (forty-five)
two in ones (forty-five)
ovvo records (forty-five)
trojan records (forty-five)

CHORUS

CHORUS 2

7-7,000 piece orchestra set
everybody needs a bosom for a pillow mines on the RPM...

CHORUS

CHORUS
Tap to rate this tab
 
# A B C D E F G H I J K L M N O P Q R S T U V W X Y Z