Song name
# A B C D E F G H I J K L M N O P Q R S T U V W X Y Z

Corpus Christi - Parade Of Scars tab

First Corpus Christi tab on the site, I think they're good enough
to deserve being on here :) Some parts of this song were pretty
confusing, like the clean singing chorus, so I once again asked my
friend Billybusa for help, and he made a nice way to play the chorus
so thank you very much Billybusa! Please rate this tab, and give
any comments or corrections!

Band Site: 

http://www.victoryrecords.com/corpuschristi

http://www.myspace.com/corpuschristiad


TITLE: Parade Of Scars
BAND: Corpus Christi
ALBUM: The Darker Shades Of White

LEGEND:

p = pull-off
h = hammer-on
* = pinch harmonic
/ = Slide
~ = Vibrato

|-----------------------------------------------------------------|
|-----------------------------------------------------------------|
|-----------------------------------------------------------------|
|-----------------------------------------------------------------| x 2
|-5--------------3h5--------------8-----7-----8-----7-----3---7---|
|---000000000000-----000000000000---0-0---0-0---0-0---0-0---0---0-|

|-----------------------------------------------------------------------|
|-----------------------------------------------------------------------|
|-----------------------------------------------------------------------|
|-----------------------------------------------------------------------| x 2
|-5-----------------3h5-----------------8-----7-----8-----7-----3---7---|
|---0-0-0-0-0-0-0-0-----0-0-0-0-0-0-0-0---0-0---0-0---0-0---0-0---0---0-|
    
|---------------------------------------------------------------------|
|---------------------------------------------------------------------|
|---------------------------------------------------------------------|
|-0~~~----------------------------------------------------------------|
|-0~~~----------------------------------------------------------------|
|-0~~~----------------------------------------------------------------|

|---------------------------------------------------------------------|
|---------------------------------------------------------------------|
|---------------------------------------------------------------------|
|---------------------------------------------------------------------|
|-3h5---0---------0-----------3h5---0---------0-----------------------|
|-----0-0-0-3h5-0-0-0-000-000-----0-0-0-3h5-0-0-0-888-101010----------|

|-----------------------------------------------------------------------------|
|-----------------------------------------------------------------------------|
|-----------------------------10-10-10-10-10-10-10-10-12-12-12-12-12-12-12-12-|
|-----------------------------10-10-10-10-10-10-10-10-12-12-12-12-12-12-12-12-|
|-3h5---0-------0-------------8--8--8--8--8--8--8--8--10-10-10-10-10-10-10-10-|
|-----0-0-0-3h5-0-0-0-000-000-------------------------------------------------|

|---------------------------------------------------------------------|
|---------------------------------------------------------------------|
|---------------------------------------------------------------------|
|---------------------------------------------------------------------|
|-3h5---0---------0-----------3h5---0---------0-----------------------|
|-----0-0-0-3h5-0-0-0-000-000-----0-0-0-3h5-0-0-0-888-101010----------|

|-------------------------------------------------------------------------|
|-------------------------------------------------------------------------|
|-------------------------------------------------------------------------|
|-------------------------------------------------------------------------|
|-3h5---0---------0-----------8-0-8-0-8-0-8-0-12-0-12-0-12-0-12-0---------|
|-----0-0-0-3h5-0-0-0-000-000---------------------------------------------|

|---------------------------------------------------------------------|
|---------------------------------------------------------------------|
|-10-10-10-10-10-10-10-10-9-9-9-9-9-12--------------------------------|
|-10-10-10-10-10-10-10-10-9-9-9-9-9-12-0~-----------------------------|
|-8--8--8--8--8--8--8--8--7-7-7-7-7-10-0~-----------------------------|
|--------------------------------------0~-----------------------------|

|---------------------------------------------------------------------|
|---------------------------------------------------------------------|
|-10-10-10-10-10-10-10-10-9-9-9-9-9-12--------------------------------|
|-10-10-10-10-10-10-10-10-9-9-9-9-9-12--------------------------------|
|-8--8--8--8--8--8--8--8--7-7-7-7-7-10-0~-0-0-0-0-0-0-0-0-0-0-0-0-0-0-|
|--------------------------------------0~-0-0-0-0-0-0-0-0-0-0-0-0-0-0-|

|-------------------------------------------------------------------------------------------------|
|-------------------------------------------------------------------------------------------------|
|-10-10-10-10-10-10-10-10-12-12-12-12-12-12-12-12-14-14-14-14-14-14-14-14-12-12-12-12-12-12-12-12-|
|-10-10-10-10-10-10-10-10-12-12-12-12-12-12-12-12-14-14-14-14-14-14-14-14-12-12-12-12-12-12-12-12-|
|-8--8--8--8--8--8--8--8--10-10-10-10-10-10-10-10-12-12-12-12-12-12-12-12-10-10-10-10-10-10-10-10-|
|-------------------------------------------------------------------------------------------------|

|-----------------------------------------------------------------------|
|-----------------------------------------------------------------------|
|----7---9---10---9---7---9---10---9---7---9---10---9---7---9---10---9--|
|--7---7---7----7---7---7---7----7---8---8---8----8---8---8---8----8----|
|-----------------------------------------------------------------------|\
|-----------------------------------------------------------------------| \
									   
|-----------------------------------------------------------------------|   x 2
|-----------------------------------------------------------------------|  /
|---7---9---10---9---7---9---10---9-9---9---9---9---10---10---10---10---| /
|-------------------------------------7---7---7---7----7----7----7----7-|/
|-8---8---8----8---8---8---8----8---------------------------------------|
|-----------------------------------------------------------------------|

|-----------------------------------------------------------------|
|-----------------------------------------------------------------|
|-----------------------------------------------------------------|
|-----------------------------------------------------------------| x 2
|-5--------------3h5--------------8-----7-----8-----7-----3---7---|
|---000000000000-----000000000000---0-0---0-0---0-0---0-0---0---0-|

|-------------------------------------------------------------|-----------|---------|
|-------------------------------------------------------------|----1st----|---2nd---|
|-------------------------------------------------------------|--Ending---|-Ending--|
|-------------------------------------------------------------|-----------|---------|x 2
|-5-----------------3h5-----------------8-----7-----8-----7---|---3---7---|---------|
|---0-0-0-0-0-0-0-0-----0-0-0-0-0-0-0-0---0-0---0-0---0-0---0-|-0---0---0-|-000-000-|

|---------------------------------------------------------------------|
|---------------------------------------------------------------------|
|---------------------------------------------------------------------|
|---------------------------------------------------------------------|
|-000-000-000-000-000-000-000-000-000-000-000-000-8h12p8h12-7h10p7p5--|\
|-000-000-000-000-000-000-000-000-000-000-000-000---------------------| \ 
									 
|---------------------------------------------------------------------|   x 2
|---------------------------------------------------------------------|  /
|---------------------------------------------------------------------| /
|---------------------------------------------------------------------|/
|-000-000-000-000-000-000-000-000-8--8--8--8--------------------------|
|-000-000-000-000-000-000-000-000-------------------------------------|

|---------------------------------------------------------------------|
|---------------------------------------------------------------------|
|---------------------------------------------------------------------|
|---------------------------------------------------------------------|
|-0000--0000---0000-0000---0000-0000----------------------------------|
|-0000--0000---0000-0000---0000-0000---3*-----------------------------|

|---------------------------------------------------------------------|
|---------------------------------------------------------------------|
|---------------------------------------------------------------------|
|---------------------------------------------------------------------|
|-3h5---0---------0-----------3h5---0---------0-----------------------|
|-----0-0-0-3h5-0-0-0-000-000-----0-0-0-3h5-0-0-0-888-101010----------|

|-----------------------------------------------------------------------------|
|-----------------------------------------------------------------------------|
|-----------------------------10-10-10-10-10-10-10-10-12-12-12-12-12-12-12-12-|
|-----------------------------10-10-10-10-10-10-10-10-12-12-12-12-12-12-12-12-|
|-3h5---0---------0-----------8--8--8--8--8--8--8--8--10-10-10-10-10-10-10-10-|
|-----0-0-0-3h5-0-0-0-000-000-------------------------------------------------|

|---------------------------------------------------------------------|
|---------------------------------------------------------------------|
|---------------------------------------------------------------------|
|---------------------------------------------------------------------|
|-3h5---0---------0-----------3h5---0---------0-----------------------|
|-----0-0-0-3h5-0-0-0-000-000-----0-0-0-3h5-0-0-0-888-101010----------|

|---------------------------------------------------------------------|
|---------------------------------------------------------------------|
|---------------------------------------------------------------------|
|---------------------------------------------------------------------|
|-3h5---0---------0-----------8-0-8-0-8-0-8-0-12-0-12-0-12-0-12-0-----|
|-----0-0-0-3h5-0-0-0-000-000-----------------------------------------|


|-----------------------------------------------------------------------|
|-----------------------------------------------------------------------|
|----7---9---10---9---7---9---10---9---7---9---10---9---7---9---10---9--|
|--7---7---7----7---7---7---7----7---8---8---8----8---8---8---8----8----|
|-----------------------------------------------------------------------|\
|-----------------------------------------------------------------------| \
									   
|-----------------------------------------------------------------------|   x 2
|-----------------------------------------------------------------------|  /
|---7---9---10---9---7---9---10---9-9---9---9---9---10---10---10---10---| /
|-------------------------------------7---7---7---7----7----7----7----7-|/
|-8---8---8----8---8---8---8----8---------------------------------------|
|-----------------------------------------------------------------------|

|---------------------------------------------------------------------|
|-10~-10h11p8~-8-8h10p6-6-8/10-13~-11p10h11---------------------------|
|---------------------------------------------------------------------|
|---------------------------------------------------------------------|
|---------------------------------------------------------------------|
|---------------------------------------------------------------------|

|-------------------------------------------------------------------------|
|-------------------------------------------------------------------------|
|-------------------------------------------------------------------------|
|-8---------------8---------8---8---7---------------7---------7---7---0~~-|
|-8-8-8-8-8-8-8-8-8-8-8-8-8-8-8-8-8-7-7-7-7-7-7-7-7-7-7-7-7-7-7-7-7-7-0~~-|
|-8-8-8-8-8-8-8-8-8-8-8-8-8-8-8-8-8-7-7-7-7-7-7-7-7-7-7-7-7-7-7-7-7-7-0~~-|

|--------------------------------------------------------------------------|
|--------------------------------------------------------------------------|
|--------------------------------------------------------------------------|
|--------------------------------------------------------------------------|
|-0000--0000---0000-0000---0000--0000---0000-0000---0000--0000---0000-0000-|
|-0000--0000---0000-0000---0000--0000---0000-0000---0000--0000---0000-0000-|

|-------------------------------------|
|-------------------------------------|
|-------------------------------------|
|-------------------------------------|
|-8h12p8h12-7h10p7p5-5h8p5h8-3h7------|
|--------------------------------3*---|

|-----------------------------------------------------------------------------------|
|-----------------------------------------------------------------------------------|
|-----------------------------------------------------------------------------------|
|-----------------------------------------------------------------------------------|
|-00--00--0-0-0-0--00-00--0-0-0-0--00-00--0-0-0-0--00--00--8h12p8h12-7h10p7p5-00-00-|
|-00--00--0-0-0-0--00-00--0-0-0-0--00-00--0-0-0-0--00--00---------------------00-00-|
Tap to rate this tab
# A B C D E F G H I J K L M N O P Q R S T U V W X Y Z