Song name
# A B C D E F G H I J K L M N O P Q R S T U V W X Y Z

Corpus Christi - Fight For Your King tab

Band - Corpus Christi
Album - The Darker Shades Of White

This tab is 100% correct ive listened to all the parts and played them
until each note was spot on This is an orginal cover not copied from
anywhere else. Any questions or anything contact me through my UG Profile.
Please comment and tell me what you think! 
Finishing Soon.....

Tuning Drop B
C# (High)
G# 
E   
B  
F# 
B  (Low)



0:00-0:31

  ( Palm Mute Single Notes )       ( Pm )         ( Pm )         
|-----------------------------------------------------------------|
|-----------------------------------------------------------------|
|-----------------------------------------------------------------|(Intro)
|--77-------77-55-88-------88-77-55-------55-33-66-------66-55-77-|(3 Times)
|--55-55555-55-55-55-55555-55-55-33-33333-33-33-33-33333-33-33-55-|
|-----------------------------------------------------------------|

0:08-0:011

|-----------------------|
|-----------------------| 
|-----------------------|      
|-X////////////---------|    (Pre Solo)  
|-X////////////---------|    
|-X////////////---------|
 (Pick Slide)

0:31-0:34

|---------------------------------|
|---------------------------------|
|---------------------------------| (Bridge)
|---------------------------------|
|5-3-----------5-3----------------|
|----6-5-6-5-3-----6-5-6-5-3-0----|

0:34-0:55

|---------------------------------|
|---------------------------------|
|---------------------------------|
|---------------------------------| (Play 3 Times)
|---------3----5---3--------------|
|00000000---00---0---0-6-5-3------|
(Palm Mute Zeros)
   
2:57-3:07

(Repeat Intro)              (Interlude)        

3:04-3:07

|-----------------------|
|-----------------------| 
|-----------------------|      
|-X////////////---------|    (Pre Solo)  
|-X////////////---------|    
|-X////////////---------|
 (Pick Slide)

3:07-3:14

(Hold)  (Constantly Hammer-On 10 After Every Note)____ 
 ^\/^      / 8x \       / 8x \        _ _ _ _ _ _/ 3x \_ _ _ _ _ _
|---------/------\-----/------\-----/------------------------------\ 
|-(7)----/H14-H10-\---/H15 H10-\---/H17-H10-H15-H10-H14-H10-H15-H10-\
|-------|----------|-|----------|-|----------------------------------|(Solo)
|-------|----------|-|----------|-|----------------------------------|(Pt.1)
|-------|----------|-|----------|-|----------------------------------|
|-------|----------|-|----------|-|----------------------------------|


3:14-3:17                                 
                   ( Tremllo Picking )             _________
   (Hold)          (Play Three Times)          _ _/Full Bend\_ _ 
    ^\/^                                      /      ^\/^       \   
|---(12)----17-1212-15-1212-14-1212-15-1212--|-------[19]--------|
|--------------------------------------------|-------------------| 
|--------------------------------------------|-------------------| (Solo)
|--------------------------------------------|-------------------| (Pt.2)
|--------------------------------------------|-------------------| 
|--------------------------------------------|-------------------| 



          Great band, Even greater song. Comments are appreciated =]
                                     ||
                                     ||
                                     ||
                                     ||
                                   /\||/\
                                   \\\///
                                    \\//
                                     \/
                       
Tap to rate this tab
# A B C D E F G H I J K L M N O P Q R S T U V W X Y Z