Guitaretab - guitar tabs
Song name
# A B C D E F G H I J K L M N O P Q R S T U V W X Y Z

Corrosion Of Conformity - Deliverance tab

Band - Corrosion Of Conformity
Song - Deliverance

Main Riff:
e|-----------|------------|-------------------------|-----------|
B|-----------|------------|-------------------------|-----------|
G|-----------|------------|-------------------------|-----------|
D|---p-h--h--|-p-h-p-h--h-|-------------------------|-----------|
A|--2-0-2--5-|2-0-2-0-2--5|2-0-2-0-2--5--2-0-2/9-0-1|-----------|
D|--2-0-2--5-|2-0-2-0-2--5|2-0-2-0-2--5--2-0-2/9-0-1|-----------|
[ Tab from: http://www.guitaretab.com/c/corrosion-of-conformity/132710.html ]
Sad domination:
e|-------------------------------| Try this part
B|-------------------------------| with single notes also.
G|-------------------------------|
D|-------------------------------| x2
A|-2-2-5-7-8-7-5-0-2--5^-5^-5^-0-|
D|-2-2-5-7-8-7-5-0-2--5^-5^-5^-0-|

e|---------------------------------------------|
B|---------------------------------------------|
G|---------------------------------------------|
D|---------------------------------------------|
A|-----/7-5------------/7-5--------------------|
D|-2-2------9-8-7-0-2-2-----9-8757---567---567-|

Solo:
e|---------------------------------| 
B|---------------------------------| 
G|---------------------------------| 
D|---------------------------------| 
A|--0-2---2-532-/8-7-875-875-875-0-| 
D|--0-2---2-532-/8-7-875-875-875-0-| 

e|-----------------|
B|-----------------|
G|-----------------|
D|-----------------|
A|--0-2--3/5--8-7--|
D|--0-2--3/5--8-7--|
Related for Deliverance tab
Advertisement will be closed in 10 seconds